歌手头像-Beyond

光辉岁月

1 2 3 4 5
x

音乐人: Beyond

供谱者:reecho
光輝歲月 -- guitar tablature #bf-1

This song, unlike most of the pop songs, 
talks about the racial discrimination. 
This kind of song is rare in Hong Kong before Beyond. 
In this song, the background rhythm guitar plays the arpeggio of the chords. 
The lead guitar, with some modulation and reverb, 
plays the fill-in and all the solo. 
Also, there is an acoustics guitar plays the rhythm too.
The song's tempo is 72 and the key is F. 
(This tab is long and complicate, better print it out first.)
Play this song soulfully!


/   ==  slide
p   ==  pulling off
h   ==  hammering on
^   ==  bent
^+  ==  bent and hold
7^7 ==  bent and release


Intro: overdrive electric guitar with a bit delay.
       arpeggio rhythm guitar plays the background
       as the following (see the arpeggio rhythm guitar below). 

           E       B      Dbm   Abm   A       B          E    B
e |-------|--------------|-----------|------------------|-----------|
B |-4-5-7-|-7/9--9/7-5-4-|-----------|--------4-5-6-5-4-|-5~--4-5-7-|
G |-------|--------------|-6---------|-4-4h6------------|-----------|
D |-------|--------------|----6-4--6-|------------------|-----------|
A |-------|--------------|-----------|------------------|-----------|
E |-------|--------------|-----------|------------------|-----------|

    E       B       Dbm     Abm    A       B            E    B  
e |---------------|--------------|--------------------|--------------|
B |-7/9--9/7--5-4-|-6-5----------|--------------------|--5--4h5p4----|
G |---------------|--------------|------------------4-|--------------|
D |---------------|------6-4-4h6-|-4-4h6--------4-6---|--------------|
A |---------------|--------------|----------4-7-------|--------------|
E |---------------|--------------|--------7-----------|--------------|

arpeggio rhythm guitar: play it two times when lead guitar play the intro.
best if use Fender Stratocastor with bridge and middle pick up on,stereo
chrous and reverb as well.

   E           B         Dbm         Abm        
e |--4--5p4-------------|--4---------4---------|
B |--5------5--7--------|--5---------4---------|
G |--4---------8--------|--6---------4---------|
D |--6---------9--9p8---|--6---------6---------|
A |--7---------9------9-|--4---------6---------|
E |------------7--------|--4---------4---------|

   A                B              E                B   
e |-------------------------------|------4-5-4---7--7--|
B |------5-7-5----------7-9-7-----|----5-------7----7--|
G |----6-------6------8-------8---|--4--------------8--|
D |--7-----------7--9-----------9-|-----------------9--|
A |-------------------------------|-----------------9--|
E |-------------------------------|-----------------7--|

Verse: arpeggio rhythm guitar

   E           B         Dbm         Abm        
e |--4--5p4-------------|--4---------4---------|
B |--5------5--7--------|--5---------4---------|
G |--4---------8--------|--6---------4---------|
D |--6---------9--9p8---|--6---------6---------|
A |--7---------9------9-|--4---------6---------|
E |------------7--------|--4---------4---------|

   A                B              E                B    
e |-------------------------------|------4-5-4---7--7--| 
B |------5-7-5----------7-9-7-----|----5-------7----7--| 
G |----6-------6------8-------8---|--4--------------8--| 
D |--7-----------7--9-----------9-|-----------------9--| 
A |-------------------------------|-----------------9--| 
E |-------------------------------|-----------------7--| 

   E           B         Dbm         Abm        
e |--4--5p4-------------|--4---------4---------|
B |--5------5--7--------|--5---------4---------|
G |--4---------8--------|--6---------4---------|
D |--6---------9--9p8---|--6---------6---------|
A |--7---------9------9-|--4---------6---------|
E |------------7--------|--4---------4---------|

   A                B              E                B    
e |-------------------------------|------4-5-4---7--7--| 
B |------5-7-5----------7-9-7-----|----5-------7----7--| 
G |----6-------6------8-------8---|--4--------------8--| 
D |--7-----------7--9-----------9-|-----------------9--| 
A |-------------------------------|-----------------9--| 
E |-------------------------------|-----------------7--| 

    Dbm         B             A           B         
e |--4---------7------------|--5---------7---------|
B |--5---------7------------|--5---------7---------|
G |--6---------8------------|--6---------8---------|
D |--6---------9------------|--7---------9---------|
A |--4---------9------------|--7---------9---------|
E |--4---------7------------|--5---------7---------|

    Dbm         B             A           B         
e |--4---------7------------|--5---------7---------|
B |--5---------7------------|--5---------7---------|
G |--6---------8------------|--6---------8---------|
D |--6---------9------------|--7---------9---------|
A |--4---------9------------|--7---------9---------|
E |--4---------7------------|--5---------7---------|

 Verse2:

   E           B             Dbm         Abm        
e |--4--4------7---7--------|--4--4------4--4------|
B |--5--5------7---7--------|--5--5------4--4------|
G |--4--4------8---8--------|--6--6------4--4------|
D |--6--6------9---9--------|--6--6------6--6------|
A |--7--7------9---9--------|--4--4------6--6------|
E |------------7---7--------|--4--4------4--4------|

   A                B                  E                B   
e |--5--5----------7---7------------|------4-5-4---7--7--|  
B |--5--5----------7---7------------|----5-------7----7--|  
G |--6--6----------8---8------------|--4--------------8--|  
D |--7--7----------9---9------------|-----------------9--|  
A |--7--7----------9---9------------|-----------------9--|  
E |--5--5----------7---7------------|-----------------7--|  

    E           B             Dbm         Abm       
e |--4--4------7---7--------|--4--4------4--4------|
B |--5--5------7---7--------|--5--5------4--4------|
G |--4--4------8---8--------|--6--6------4--4------|
D |--6--6------9---9--------|--6--6------6--6------|
A |--7--7------9---9--------|--4--4------6--6------|
E |------------7---7--------|--4--4------4--4------|

    A                B                  E                B  
e |--5--5----------7---7------------|------4-5-4---7--7--|  
B |--5--5----------7---7------------|----5-------7----7--|  
G |--6--6----------8---8------------|--4--------------8--|  
D |--7--7----------9---9------------|-----------------9--|  
A |--7--7----------9---9------------|-----------------9--|  
E |--5--5----------7---7------------|-----------------7--|  

                               E           B              
                              |--------------------|
 Lead Guitar enters           |------------4-5-7---|                                                       
                              |--------------------|                                                       
                              |--------------------|                                                       
                              |--------------------|                                                       
                              |--------------------|                                                       
                                                                                                            
                                  
arpeggio rhythm guitar plays the verse as the above.                                      
                                       
   E       B       Dbm       Abm  A       B            E    B    
e |---------------|--------------|--------------------|--------------|
B |-7/9--9/7--5-4-|-6-5----------|--------------------|--5--4h5p4----|
G |---------------|--------------|------------------4-|--------------|
D |---------------|------6-4-4h6-|-4-4h6--------4-6---|--------------|
A |---------------|--------------|----------4-7-------|--------------|
E |---------------|--------------|--------7-----------|--------------|

then repeat from the verse.


Bridge: 2 rhythm guitar; 
one acoustic plays the line and one clean electric plays the chords

   E             B             Dbm           Abm           
e |--4-4-5-7-5-4--------------|---------------------------|
B |--------------4-4-5-7-5-4--|------4-5-4---4-4-5-7-5-4--|
G |---------------------------|--6-6-------6--------------|
D |---------------------------|---------------------------|
A |---------------------------|---------------------------|
E |---------------------------|---------------------------|

   A              B          E        B    
e |--------4----------------|-----7-------|
B |--5-5-7---7-5-------4----|-5-7---------|
G |--------------4-4-6---6-4|-------------|
D |-------------------------|-------------|
A |-------------------------|-------------|
E |-------------------------|-------------|

then lead guitar solo with rhythm guitar comtinues to play the above line.

   E               B             Dbm      Abm     A           B     E          B
e |-----------------------------|---------4~-----|--5-4-5-7-5-4----|----------------|
B |--5-4-4h5~--4-5-5/7-5-4-5----|----------------|--------------7~-|--7/9--9~-7-----|
G |--------------------------6~-|----------------|-----------------|----------------|
D |-----------------------------|--4/6-6---------|-----------------|----------------|
A |-----------------------------|----------------|-----------------|----------------|
E |-----------------------------|----------------|-----------------|----------------|

?   E           B                 Dbm       Abm    A             B      E    B 
e |------4-----4----------------|----------------|--16-17-19-17-16----|-16-----------|
B |----5---7-5---5/7~-----------|-5-4-5-4--5/12~-|-----------------19-|-----19^^^^^--|
G |--4--------------------------|----------------|--------------------|--------------|
D |-----------------------------|----------------|--------------------|--------------|
A |-----------------------------|----------------|--------------------|--------------|
E |-----------------------------|----------------|--------------------|--------------|

then play verse2 til the end.

Transcribed by Jan Wong (2-24-96)


|----------------------------- The --------------------- End -----------------------|
添加到谱单
X

添加到谱单

《 光辉岁月 -- Beyond 》加入
◎ 选择已有谱单 创建新的

公开 (默认不公开,欢迎创建有意思的"公开谱单")

创建取消

推荐语(选填)

X

请先登录chord4


忘记密码