歌手头像-宋冬野

夢遺少年

1 2 3 4 5
x

音乐人: 宋冬野

供谱者:reecho
歌曲名:夢遺少年 CD版本
所屬專輯:《安和橋北》
詞曲:宋冬野      
編配者:reecho
---------------------------------------------------------------------------------------
全曲重複以下兩個和絃
Amaj7[002120]
Dmaj7[000222]

Intro:
---------------------|-0h2-------2-------------|-----------------------|-2------------
-0h2--2---------2----|---------2---2-------2---|-2-----0---------0---0-|-2---0------2-
----1---1-----1---1--|-------2-------2---2---2-|-1---1---1-----1---1---|-2-2---2------
---------2 -2-------2|-----0-----------0-------|---2-------2-2---------|--------------
---------------------|-------------------------|-----------------------|--------------
---------------------|-------------------------|-----------------------|--------------

      Amaj7      Dmaj7  
      -------    ----------
      ---2--2    ---2-3-2-3
      --1--1-    -2----2---
      -2--2--    0---------
      0------    ----------
      -------    ---------- 
昏睡的頑童 夢就像烈酒
      Amaj7          Dmaj7
做了就淚流成河 不做就難耐憂愁
    Amaj7    Dmaj7        
    -------  ------2----- 
    ---2--2  ----2---2--- 
    --1--1-  --2-------2- 
    -2--2--  -0---------- 
    0------  ------------ 
    -------  ------------ 
謊言殺死生活 情話殺死自由
Amaj7              Dmaj7↑(琶音)
時間是殺身之禍 嫉惡如仇也沒有用

以下掃弦(下上下上隨便掃)
↑    Amaj7          Dmaj7
幾天以前 你差一點兒就死了
        Amaj7             Dmaj7
這他媽荒唐的人間幹掉了你的希望
      Amaj7                 Dmaj7
你想把一切的一切都找個地方給射了
      Amaj7         Dmaj7
射在牆上 牀上 姑娘的肚子上
     Amaj7          Dmaj7
嘿 果兒 你要不要跟他睡覺
   Amaj7          Dmaj7
他別的不行但是他是69之王
    Amaj7                 Dmaj7
可他混蛋的爸爸曾對他嚴肅的教導
      Amaj7                  Dmaj7 
再紅的日頭 也得歸了我們偉大的黨中央
    Dmaj7   Amaj7
他說六扇門裏太齷齪
不如六根弦上取磊落
他說六扇門裏太齷齪
不如六根弦上取磊落
      Amaj7          Dmaj7     
今天早上 你差一點兒就死了
      Amaj7               Dmaj7   
你的朋友給你講了一個動人的傳說
      Amaj7              Dmaj7 
世上唯一懂鳥語的人 死在了2006
    Amaj7           Dmaj7 
你卻還是個被夢遺棄的禽獸
    Amaj7           Dmaj7
嘿 果兒 他纔不會跟你睡覺
    Amaj7              Dmaj7
你有菩薩的心腸 也只是個清新的小流氓兒
  Amaj7              Dmaj7
他一肚子悲傷 也滿腦子憤青兒的思想
    Amaj7         Dmaj7
雖然沒坐動車也早晚逃不過死亡

Dmaj7     Amaj7
La~lalala~~~
    Dmaj7     Amaj7
他是被夢遺棄的人      x2    

昏睡的頑童 夢就像烈酒
做了就淚流成河 不做就難耐憂愁
謊言殺死生活 情話殺死自由
時間是殺身之禍 嫉惡如仇也沒有用
六扇門裏太齷齪
不如六根弦上取磊落
他說六扇門裏太齷齪
不如六根弦上取磊落
添加到谱单
X

添加到谱单

《 夢遺少年 -- 宋冬野 》加入
◎ 选择已有谱单 创建新的

公开 (默认不公开,欢迎创建有意思的"公开谱单")

创建取消

推荐语(选填)

X

请先登录chord4


忘记密码