歌手头像-樑漢文

披頭四

1 2 3 4 5
x

音乐人: 樑漢文

供谱者:reecho
編配者:DominicTang
-----------------------------------------------------------------------

Intro
E|---------------------------------------------------|
B|--11-11-9-8-9-8-------------------------9-9-8-9-11-|
G|----------------10-8-10--7-7-8-8-10--10------------|
D|---------------------------------------------------|
A|---------------------------------------------------|
E|---------------------------------------------------|

E|---------------------------------------------------|
B|--11-11-9-8-9-8-------------------------9-9-8-9-11-|
G|----------------10-8-10--7-7-8-8-10--10------------|
D|---------------------------------------------------|
A|---------------------------------------------------|
E|---------------------------------------------------|

E|--10-------------------------13-11-10----------------------|
B|-----11----------------------------------------------11-13-|
G|--------10-13-12-13-12-10-10----------10-13-12-13-12-------|
D|-----------------------------------------------------------|
A|-----------------------------------------------------------|
E|-----------------------------------------------------------|

D        A Bm      A
你也叫約翰 出生於北角
Bm      A         D       A
願望就是巡迴世界 到處被人學
D        A Bm      A
我也會孤獨 沒甚麼工作
Bm        A    D       A
願望在流行王國 努力再請覺

  A         D      Bm      A
讓你我也愛大家 讓這結他變神話
    F       Gm         Bm    A
熱愛創作我們四個 明日是披頭四吧
     D      A     Bm       A
暫時住在錄音室 未來人人圍觀它
    D       A     Bm         A
要令農民白領總統 都將我們當經典
D               A
彈彈彈 (編編編) 完成無瑕的唱片
Bm        A
走過紅紅地毯
D         A       Bm       A
要令仍然未誕生的 都將我們當經典
D               A             Bm
彈彈琴 (表表演) 完成神話只要十年
A         D
感情仍然未變
      Am    G D A Am    G D A
Lalalala lalalala lalalala....

你我最渴望 高攀流行榜
首首歌都叫旺 潛艇也會被奚落

D        A Bm      A
你我那血汗 很少人來看
Bm        A    D       A
在電視城門牆角 以爲在英國
  A         D      Bm      A
直到你我也成家 未必再需要大家
    F       Gm         Bm    A
就算四散我們四個 同樣像披頭四吧
     D      A     Bm       A
當我變了曲家 等你成爲務商家
    D       A     Bm         A
要令農民白領總統 都將我們當經典
D               A
談和平 死心先 然而潮流出唱片(oh)
Bm        A
袋裏仍然沒錢
D         A      Bm       A
要令仍然未誕生的 都將我們當經典
D             A             Bm
如何窮 (怎麼癲) 仍能攜手走過十年
A         D
感情爲何漸變

Am    G D A Am    G D A  D
Aiya aiya (aiya aiya)   如能挨多十年
A            Bm          A
如何挨多十年 不知等到那一天

    D       A     Bm         A
要是農民白領總統 不將我們當經典
D
Nel nel nel (Wao wao wao)
 A              Bm       A
完成無聊的唱片 不過仍能賺錢
D         A      Bm      A
要是仍然未誕生的 不將我們當經典
D                A            Bm
彈彈琴 (表表演) 從流行曲找到快樂
D         A
精神仍然未變 (dulu dulu dulu dulula)
lalalala lalalala lalalala....

(You say yeah,I say no) Yesterday (yesterday yeah)
未夠轟烈 未算得志 都不必太在意 just let it be

添加到谱单
X

添加到谱单

《 披頭四 -- 樑漢文 》加入
◎ 选择已有谱单 创建新的

公开 (默认不公开,欢迎创建有意思的"公开谱单")

创建取消

推荐语(选填)

X

请先登录chord4


忘记密码