歌手头像-張國榮

倩女幽魂

1 2 3 4 5
x

音乐人: 張國榮

供谱者:
曲:黃霑
詞:黃霑
編:Romeo Diaz

1|---|-----|--11|-------|
2|-3-|-----|-1--|311----|
3|--2|-----|2---|---2--0|
4|0--|32320|----|----30-|
5|---|-----|----|-------|
6|---|-----|----|-------|
  人生路 美夢似路長 路里風霜  風霜~撲面幹

1|---|-------|---------|-----|
2|---|---3---|---------|-----|
3|003|323-20-|320--320-|-----|
4|---|------3|---22---3|202-0|
5|---|-------|---------|---3-|
6|---|-------|---------|-----|
  紅塵裏 美夢有幾多方向 找癡癡夢幻~中心愛 路隨人茫茫

1|---|-----|--11|-------|
2|-3-|-----|-1--|311----|
3|--2|-----|2---|---2--0|
4|0--|32320|----|----30-|
5|---|-----|----|-------|
6|---|-----|----|-------|
  人生是 美夢與熱望 夢裏依稀  依稀~有淚光

1|----|-------|---------|-----|
2|----|---3---|---------|-----|
3|0003|323-20-|320--320-|-----|
4|----|------3|---22---3|202-0|
5|----|-------|---------|---3-|
6|----|-------|---------|-----|
  何從何去 去覓我心中方向 風彷彿在夢中輕~嘆 路和人茫茫

1|---|-----|--11|-------|
2|-3-|-----|-1--|311----|
3|--2|-----|2---|---2--0|
4|0--|32320|----|----30-|
5|---|-----|----|-------|
6|---|-----|----|-------|
  人間路 快樂少年郎 路里崎嶇 崎嶇不見陽光

1|---|-------|---------|-----|
2|---|---3---|---------|-----|
3|003|323-20-|320--320-|-----|
4|---|------3|---22---3|202-0|
5|---|-------|---------|---3-|
6|---|-------|---------|-----|
  泥塵裏 快樂有幾多方向 一絲絲夢幻般風~裏 路隨人茫茫

1|---------|-----|
2|---------|-----|
3|320--320-|-----|
4|---22---3|202-0|
5|---------|---3-|
6|---------|-----|
  絲~絲夢幻般風~雨 路隨人茫茫


-緣-
http://hk.geocities.com/ningman373/
添加到谱单
X

添加到谱单

《 倩女幽魂 -- 張國榮 》加入
◎ 选择已有谱单 创建新的

公开 (默认不公开,欢迎创建有意思的"公开谱单")

创建取消

推荐语(选填)

X

请先登录chord4


忘记密码