歌手头像-五月天

志明與春嬌

1 2 3 4 5
x

音乐人: 五月天

供谱者:reecho
編配者(轉載來源):網絡
---------------------------------------------------------------------
Intro:

E   G#m   F#m   Am7 B7
E   G#m   F#m   Am7 B7                                                
 
Woo Ya~      Yeah!

Verse 1:
E           G#m
志明真正不知要安怎
    F#m    Am7       B7
爲什麼 愛人不願閣再相偎 Ah...
E            G#m
春嬌 已經早就無在聽
       F#m   Am7         B7
講這多   其實攏總攏無卡抓 Ah...

Pre-chorus:
E           G#m    F#m
走到淡水的海岸 兩個人的愛情
Am7            B7
已經無人看 已經無人聽 啊啊

Chorus:
E
我跟你 最好就到這
G#m               F#m
你對我 已經沒感覺 到這凍止
  Am7     B7
你也免愛我 Ah...
E
我跟你 最好就到這
G#m               F#m
你對我 已經沒感覺 麥閣傷心
    Am7      B7
麥閣我這愛你 你沒愛我

Verse 2:
E           G#m         F#m
志明心情真正有影寒  風這大
    Am7       B7
你也真正攏無心肝 Ah...
E           G#m          F#m
春嬌你哪無要跟我播這齣電影
    Am7          B7
咱就走到這裏 準抵煞 Ah...

Repeat Pre-chorus and Chorus

Guitar Solo

   C          D            Em
e|-----------------------|------------------------------|
B|-----------------12h15-|------------------------------|
G|------12-14~14---------|-14d-14d-14d-14d---12h14p12---|
D|-14--------------------|------------------------------|
A|-----------------------|------------------------------|
E|-----------------------|------------------------------|

   C          D            Em
e|-----------------------|------------------12------------------------------|
B|-----------------12h15-|-----12-15-----12--------12-15-----12-15p12h15p12-|
G|------12-14~14---------|-14d-------14d-------14d-------14d----------------|
D|-14--------------------|--------------------------------------------------|
A|-----------------------|--------------------------------------------------|
E|-----------------------|--------------------------------------------------|

   C               D              Em
e|------------------------------|------------------------------------------------------|
B|-15d-15-15-12-----------------|------------------------------------------------------|
G|--------------14d14--------12-|-12-11h12p11-----------12-14db14-12-11-------------12-|
D|---------------------12/14----|-------------12d-12h14-----------------12/14-12/14----|
A|------------------------------|------------------------------------------------------|
E|------------------------------|------------------------------------------------------|

   C          D         B
e|--------------------|-15-14-15-14-11/-|
B|-----15-12--15d-15b-|-12-12-12-12-12/-|
G|-14-----------------|-----------------|
D|--------------------|-----------------|
A|--------------------|-----------------|
E|--------------------|-----------------|

Repeat Pre-chorus
Repeat Chorus x 2

 h : hammer-on
 p : pulling off
 / : slide
 b : upward bending
 d : downward bending
 ~ : vibration
添加到谱单
X

添加到谱单

《 志明與春嬌 -- 五月天 》加入
◎ 选择已有谱单 创建新的

公开 (默认不公开,欢迎创建有意思的"公开谱单")

创建取消

推荐语(选填)

X

请先登录chord4


忘记密码