歌手头像-郭富城

只有你

1 2 3 4 5
x

音乐人: 郭富城

供谱者:reecho
  C            Am            F          G
 -0-----0------0------0----------------------------
 ---1-----1-------1------1---1----1-----3-----3----
 --0-0---0-0-----2-2----2-2----2----2-----4-----4--
 -----------------------------3-3--3-3---5-5---5-5-
 -3-----3------0------0----------------------------
 ----------------------------1----1-----3-----3----

       C     Am
 想說一聲對不起
       F         G
 我不願意就這樣逃離
       C         Am
 失去的愛埋藏在心底
       F G       C
 我不願意活在回憶裏
       C         Am
 錯怪了妳錯看了愛情
       F         G
 告訴自己卻不要放棄
       C       Am
 假裝有妳騙了自己
       F   G     C
 最真的心是最難的情

     F    G     C
 衹有妳 我才能珍惜
     F    Em      Am
 衹有妳 才當愛情不是遊戲
     F    G       Am  Em      F
 衹有妳 我願意拋開身邊所有的一切
     G
 去愛妳
     F       G    Am    Em
 衹要妳不再拒絕 愛我多一些
     F     Am  Em  Dm              Am
 有一天妳將會瞭解   希望有一天 妳會付出真情
F            Em
 收留我孤獨的心

           C            Am           F           G
 --------------7/8-7-5---------------------------3--3-5--
 -5-6-8/10-8----------5-5--------------------------3-----
 ---------------------------4/5-5-4-4/5-4---------5--5---
 ----------------------------------------7-5-------------
 --------------------------------------------------------
 --------------------------------------------------------

       C               Am                  F
 -3/5-3----8/10-10-8-8-7-7-8-10/12-12-12/13-12----12/13-13-12-12-10-10--------
 ------5---------------------------------------------------------------13-13--
 -----------------------------------------------------------------------------
 -----------------------------------------------------------------------------
 -----------------------------------------------------------------------------
 -----------------------------------------------------------------------------

  G
 -10/12-10----------------------------
 ----------12/13-12-------------------
 --------------------12/14-12--9/10-9-
 -------------------------------------
 -------------------------------------
 -------------------------------------


添加到谱单
X

添加到谱单

《 只有你 -- 郭富城 》加入
◎ 选择已有谱单 创建新的

公开 (默认不公开,欢迎创建有意思的"公开谱单")

创建取消

推荐语(选填)

X

请先登录chord4


忘记密码