歌手头像-林俊杰

曹操

1 2 3 4 5
x

音乐人: 林俊杰

供谱者:reecho
作詞:林秋離
作曲:林俊杰
編配者:leon6686
------------------------------------------------------------------
key=Em  Play=Em  

前奏(如下) X2

 |       |       |       |        |       |       |       |
|------------7-------------------|------------7-------------------|
|5---8---7-----5---5-8---7-------|5---8---7-----5---5-8---7-------|
|--------------------------------|--------------------------------|
|--------------------------------|--------------------------------|
|7-------------------------------|5-------------7-----------------|
|--------------8-----------------|--------------------------------|

Em  C     D   G
不是英雄 不讀三國
Em  C        D        G  D/#F
若是英雄怎麼能 不懂寂寞
    Bm              Em
獨自走下長(土反)坡 月光太溫柔
Bm            D
曹操不囉唆 一心要拿荊州
Am            C           D  B
用陰謀 陽謀 明說 暗奪的摸
Em      C         D       G  D/#F
東漢末年分三國 烽火連天不休
Em      Bm      C   B
兒女情長被亂世左右 誰來煮酒
Em      C         D       G  D/#F
爾虞我詐是三國 說不清對與錯
Em      Bm       C   B       Em ~接前奏
紛紛擾擾千百年以後 一切又從頭

Solo部分  //S:Slide on(滑音)  ~:Vibrato(顫音)
 |      |       |      |      |      |       |      |
|----------------------------|----------------------------|
|----------------------------|----------------------------|
|----------------------------|----------------------------|
|----------------------------|----------------------------|
|       7 S 14 12 S 10 9 S 7 |       7 S 14 12 S 10 9~~~~~|
|7 S 14                      |7 S 14                      |

 |      |       |      |      |      |       |      |      |      |
|----------------------------|-----------------------------|--------------|
|----------------------------|-----------------------------|--------------|
|----------------------------|-----------------------------|--------------|
|----------------------------|-----------------------------|--------------|
|       7 S 14 12 S 10 9 S 7 |       7 S 12 10 S 9         |--------------|
|7 S 14                      |7 S 14               12 S 10 |7~~~~~~~~~~~~~|
添加到谱单
X

添加到谱单

《 曹操 -- 林俊杰 》加入
◎ 选择已有谱单 创建新的

公开 (默认不公开,欢迎创建有意思的"公开谱单")

创建取消

推荐语(选填)

X

请先登录chord4


忘记密码