歌手头像-林俊杰

簡簡單單

1 2 3 4 5
x

音乐人: 林俊杰

供谱者:reecho
作詞:向月娥,張思爾
作曲:林俊杰 
編配者: kennytyys@hotmail.com

Intro:

    G                     D                           Em         
1|--3-----3----3--3h5-3---------2-------2-------------0------------
2|--3-----3----3----------3-------3-------3-------------0----------
3|--4---4---4----------------------2---2-----2-------0----0--------
4|-----------------------------------------------------------------
5|-----------------------------------------------------------------
6|----------------------------------------------------0------------

    G                              C                                                 
1|--3-----3----3--3h5-3-5/7---------0------------------------------                           
2|----3-----3----3-----------------------1-------------------------                     
3|---4---4---4---------------------------0-------------------------                   
4|-------------------------------------------------0h2/5-----------               
5|----------------------------------------------3------------------                
6|-----------------------------------------------------------------            
                                                                                 

1|-----------------------------------------------------------------
2|--3/5-3-3------3----------------------3/5-3-3-------3------------
3|------------4-4----4-2/4-2-0-4-----------------4-4----4-2/4-2-0--
4|-----------------------------------5-----------------------------
5|-----------------------------------------------------------------
6|-----------------------------------------------------------------

G               Em          G          C
  我們都是泡沫輕輕一碰就破眼淚是愛的花火
G               Em          G        C
  昨天就像飛機穿過我的窗口我什麼都沒有

         Am        Bm       C        G
@我攤開了雙手你予取予求直到你想自由
       Am        Bm       C                 D
  痛苦的時候我不會閃躲就像樹葉甘心爲春風吹落

       G        D      Em   D
#只是簡簡單單的愛過我還是我
  C        G      C    D
  簡簡單單的想過就不算白活
  G        D      Em   D
  簡簡單單的瘋過被夢帶走
  C      G        C        D        G
  當故事結束之後心也喜歡一個人寂寞

Repeat @ #
添加到谱单
X

添加到谱单

《 簡簡單單 -- 林俊杰 》加入
◎ 选择已有谱单 创建新的

公开 (默认不公开,欢迎创建有意思的"公开谱单")

创建取消

推荐语(选填)

X

请先登录chord4


忘记密码