歌手头像-林俊杰

故事細膩

1 2 3 4 5
x

音乐人: 林俊杰

供谱者:reecho
原調1=C       6/8拍
選調1=C

Prelude:

    Piano Solo

-----------|-----------|-----------|-----------|-----------|-----------|
------1----|------3----|------1----|------3-1--|------0-1--|------3----|
----0------|-----------|----0------|----------0|----0-----0|-----------|
--2--------|--2-3------|--2--------|--2-3------|--2--------|--2-3------|
0----------|0----------|0----------|0----------|0----------|0----------|
-----------|-----------|-----------|-----------|-----------|-----------|

-----------|-------------|
------0-1--|------3-13--|
----0-----0|----0-------0|
--2--------|--2----------|
0----------|0------------|
-----------|-------------|

    Involve Guitar
        F G Am Am7 x4
------------------------------------------
Verse:
      F        G         Am    Am7
燈火光影 街道人羣 誰被誰吸引
      F        G         Am    Am7
窗臺風鈴 我在咖啡廳 爲妳彈琴

Rap:
F                 G
這種街燈 這種氣氛 這種人生
         Am      Am7
這樣一座 山城
F                 G
這種教堂 這種石牆 這種藤蔓
          Am      G
妳我 走在 街上
----------------------------------------------
Chorus:
             Am7             Dm7
Girl we were once a Romantic Mystery
        G
oh your touch
    C   B/G   Am     Dm7       G   G7
向日葵裏的祕密 相愛原來是種默契
      Am7         Dm7       G
故事細膩 Romantic Mystery 神祕
    C   B/G Am     Dm7        E   E7
抽象是一種情緒 油畫鮮豔了所有回憶

    F            G
故事在彎曲 流蘇在搖曳
    Em          Am
我們相戀的 結局美麗
      Dm7     G        Am
如果可以 愛像雨季 痛快想妳
-----------------------------------
Interlude:
  Piano Solo 重複

  Involve Guitar
     F G Am Am7 x2
     F G E  Am  Dm7 G
----------------------------------
F                 G
這種沙灘 這種浪漫 這種印象
         Am    Am7
狠狠愛妳 一場
F                 G
這種橋樑 這種村莊 這種月光
          Am      G
讓愛 有畫 面感
--------------------------------------
     Am7          Dm7         G
隔著距離 Romantic Mystery 在想妳
    C   B/G Am7      Dm7     G   G7
如果一切都繼續 到處是愛妳的證據
          Am7         Dm7       G
我~想或許~妳 Romantic Mystery 甜蜜
    C G   Am     Dm7      E     E7
我於是拿起筆 清楚的描繪如何愛妳
    F            G
淡淡的香氣 小小的茉莉
    Em          Am
那愛情一點 都不憂鬱
     Dm7       G        Am  Am7
我又繼續 爲妳彈琴 解釋命運
     F               G
Autant En Emporte Le Vent
              Am    Am
Gone with the wind
-----------------------------------
Postlude:
  Piano Solo  重複

END...
---------------
註明:
故事細膩原本歌主要凸顯爲古典吉他技巧
但此吉他譜不涉及太精確的solo
純屬於伴奏使用 屬於民謠的邊彈邊唱
另外 此譜解決了大多數網站上的和絃問題
修改後的譜適當掃弦會更有韻味 更貼近原譜
----------------------------
By Zeng

添加到谱单
X

添加到谱单

《 故事細膩 -- 林俊杰 》加入
◎ 选择已有谱单 创建新的

公开 (默认不公开,欢迎创建有意思的"公开谱单")

创建取消

推荐语(选填)

X

请先登录chord4


忘记密码