歌手头像-徐佳瑩

辣椒

1 2 3 4 5
x

音乐人: 徐佳瑩

供谱者:reecho
徐佳瑩 - 辣椒 (慢慢說 Cover 版)
作詞:徐佳瑩
作曲:徐佳瑩
編配者:charlie1kimo (ptt.cc)
---------------------------------------------------
KEY=C#  PLAY=C  CAPO=1

和絃:
CM7     (x32000)
DM11    (x54000)
Am6add9 (x04500)
Gm6/bB  (x10030)
D#dim7  (xx1212)
Em/C#   (x4545x)
E5/B    (xx99(12)(12))
D5/A    (xx77(10)(10))


前奏:
吉他1:
CM7      DM11    Am6add9       -       x3
A7

吉他2:
--------0--------0--------0--------0----
-----3--------3--------3--------3-------
--4--------4--------4--------4----------
----------------------------------------
----------------------------------------
----------------------------------------
x3

A7
--------------------0-------------------
--------0--------0----------------------
-----0--------0-------------------------
-----------2----------------------------
--0-------------------------------------
----------------------------------------

主歌1:
CM7
等不到曇花 只好綁架
G6
隨便說說的話
Am7
破曉蒸發 日落之前
G
先助跑預備黑夜
CM7
心頭的繭 捨不得切
G6
貪得無厭
Am7             G
諷刺的曖昧有助於幻覺

主歌2:
CM7
冷漠汗水 刺激味蕾
G6
引發熱辣痛覺
Am7
噩夢蒸發 黎明之前
G
你說你快沒感覺
CM7
魔幻時刻 太不繾綣
G6
必須調味
Gm6/bB
金黃色虧欠 誘惑一杯
B7
天堂和地獄的交界

副歌1:
G             D#dim7
來吧!還有多少時間
D/#F          Em/C#
還能夠燒得多炙烈
Cadd9
是我可愛的自虐
B7
讓我還佇立在你面前
G             D#dim7
去吧!還有多少眼淚
D/#F          Em/C#
還能夠哭得多完美
Cadd9
是我可怕的自覺
B7
盲目一世紀換來的

間奏1:
前奏兩小節

-> 主歌2

副歌2:(同副歌1)
來吧!還有多少拒絕
還要逼退到多深淵
瘋癲的自導自演
面對空氣都有了知覺
去吧!還有多少慈悲
還能微笑得多慘烈
是我可悲的自尊
倔強一世紀換的感謝

間奏2:
吉他1:
CM7     -       A7              -       x2
CM7     DM11    Am6add9         -       x2

CM7     DM11    x3
Lalalalala ...  x3
CM7
好吧 ...

吉他2:
-       -       -               -       x2 (rest)
E5/B
D5/A  -slide- E5/B
(彈完間奏)

副歌3:(同副歌1)
好吧!還有多少試煉
心還有沒有空間再碎
我跟愛情的過節
不是你走開就能完結

結尾:
G             D#dim7
好吧!還有多少情節
D/#F          Em/C#
足夠燒多久才熄滅
Cadd9
拿我可愛的自虐
G
拿我可怕的自覺
F
拿我可悲的自尊
G                       Asus2
勇敢一世紀召來飛蛾撲火的瞬間
添加到谱单
X

添加到谱单

《 辣椒 -- 徐佳瑩 》加入
◎ 选择已有谱单 创建新的

公开 (默认不公开,欢迎创建有意思的"公开谱单")

创建取消

推荐语(选填)

X

请先登录chord4


忘记密码