歌手头像-Zarahn

天使

1 2 3 4 5
x

音乐人: Zarahn

供谱者:SeyonYuen | weibo
ZARAHN - 天使

 

  作曲:周國賢   作詞:周國賢   編曲:ZARAHN

  Key:F-G#   4/4   Tempo=

________________________________________

 

Intro: |F Gm Am Dm|

       |A# C      |

 

        A# C      Am  Dm        A# C       F

  沉在愉快 時日越走越快  祈望可以  被你瞭解

        A# C      Am  Dm      A#       C   F

  讓我寄生 在你天空世界  我願意不走也不出界

 

        A# C      Am  Dm        A# C       F

  從來沒有 但最熟悉是你  忘掉一切 把你抱起

        A# C      Am  Dm      A#       C   F

  沒有再生 留下送死給你  還為你摧毀過去日記

 

Gm        Am      A# Gm       Am    A#

  不褪色也許一步不前  厭膩過後消失視線

Gm         C      Am         D      A#   C

  想了解卻執著太多  揣測你的心內結果是什麼

 

  C#    D#      Cm     F      C#        D#      Cm

*我 我不敢想太多 我祇想繼續做我 讓你開心得更多

     F      C#    D#      Cm

 可我共你的天 瞭解始終太少

     F        C#      D#      Cm   F

 對方心怎樣在跳 或你根本不會知*

 

C#                 E      F#      G#

  愛你 愛你 愛你不須講太多太多個字

 

Bridge: |C# Cm A#m G#|

        |C# Cm C# B F# F#|

 

REPEAT*

 

  C#  D#      Cm     F      C#        D#      Cm

  愛你不敢想太多 也不想靠著運氣  讓我的心不會死

     F      C#    D#      Cm

  相信是放不開 我祇想可這麼

     F        C#      D#      Cm   F

  你身邊靠著是我 讓你開心得更多 

 

Ending: |C# D# Cm F|

        |C# D# F  F|

 

solo

 

E||--9--8-----------------8---------|--11--9-----------------8--------|

B||--------9-------9----9---11-9-11-|---------9-------9----9---11-9-8-|

G||------------10----10-------------|-------------10----10------------|

D||---------------------------------|---------------------------------|

A||---------------------------------|---------------------------------|

E||---------------------------------|---------------------------------|

 

--------------------------------------|-----------------------|-------------11---9--8-9-6---|

--8-9-8----8--------------------------|-----------------------|--6--9--8--9---------------9-|

--------10---10-8-8-----------8-------|-----------------------|-----------------------------|

---------------------11-10-11----8-10b|------10~---8----------|-----------------------------|

--------------------------------------|-----------------11~---|-----------------------------|

--------------------------------------|-----------------------|-----------------------------|

 

---------------------------|-------------------------|------12----16-12--------12-16-12---------|

--8--9---------------------|---------------9~--------|--12-----12-------14-12-----------14-12---|

--------10--8~-------------|-------------------------|------------------------------------------|

---------------------10-11-|--11----10--11-----------|------------------------------------------|

---------------------------|-------------------------|------------------------------------------|

---------------------------|-------------------------|------------------------------------------|

 

------14----18-14-------14----18-14-------------|

--14-----14----------14----14----------14----14-|

------------------15----------------15----15----|

------------------------------------------------|

------------------------------------------------|

------------------------------------------------|

 

--------------------------------------------------||

--12-12-12-12-11-11-11-11-------------------------||

--------------------------13-13-13-13-11-11-11-11-||

--------------------------------------------------||

--------------------------------------------------||

--------------------------------------------------||

添加到谱单
X

添加到谱单

《 天使 -- Zarahn 》加入
◎ 选择已有谱单 创建新的

公开 (默认不公开,欢迎创建有意思的"公开谱单")

创建取消

推荐语(选填)

X

请先登录chord4


忘记密码