歌手头像-MC HOTDOG / 熱狗

離開

1 2 3 4 5
x

音乐人: MC HOTDOG / 熱狗

供谱者:reecho
編配者:bigpigbigpig (ptt.cc)
---------------------------------------------------------
Key=Bm   Play=Em    Capo=-1 (各弦調降半音)

前奏: ( Esus4     Cadd11+     Dsus4     Asus4 ) x 2

不用 Capo 的話:


      E  E  E  E  E  E  E  E     E  E  E  E  E  E  E  E
E||---------------------------|--------------------------|
B||---------------------------|--------------------------|
G||*-----3-----1-----3-----1--|-----3--------------------|
D||*--1-----1-----1-----1-----|--1--------4-----3-----4--|
A||---------------------------|--------2-----2-----2-----|
E||---------------------------|--------------------------|

 E  E  E  E  E  E  E  E   E  E  E  E  E  E  E  E   E  E  E  E  E  E  E  E  n x
------------------------|------------------------|--------------------------||
------------------------|------------------------|--------------------------||
------------------------|------------------------|-------------------------*||
----3-----4-----6-----4-|----6-----4-----6-------|-------------------------*||
-2-----2-----4-----4----|-4-----4-----4--------6-|----4-----6-----4-----6---||
------------------------|-------------------4----|-4-----4-----4-----4------||

  Esus4     022200
  Cadd11+   x340xx
  Dsus4     xx0233
  Asus4     x02230

=====================================================================

  Esus4
我忘了怎麼溝通 甚至忘了怎麼寫字

Cadd11+
我沒法打字的話就沒有辦法解釋

Dsus4
我對著電腦 而晝夜開始顛倒

Asus4
我活在視窗裡 彷彿永遠不會變老

  Esus4                   Cadd11+
我不需要治裝 只是屁股偶爾會長痔瘡


滑鼠是我的翅膀

  Dsus4
在虛擬的世界裡 我戴上面具

  Asus4
在數不盡的日夜裡 我像是編劇

   Esus4
在 Real World 我用真名說假的話

 Cadd11+
Another World 我用假名說真的話

  Dsus4
有點疑惑 我也開始變得有點掙扎

  Asus4
在我的兩個世界裡 分不清真假

  Esus4
我對著鍵盤敲打「你也是這樣嗎?」

  Cadd11+
我故作瀟灑「你也寂寞嗎 ?」

Dsus4
一起數落這個世界是我們活該嗎

Asus4
既然已經離不開了 那就一起罵
添加到谱单
X

添加到谱单

《 離開 -- MC HOTDOG / 熱狗 》加入
◎ 选择已有谱单 创建新的

公开 (默认不公开,欢迎创建有意思的"公开谱单")

创建取消

推荐语(选填)

X

请先登录chord4


忘记密码