歌手头像-吳汶芳

變化總是吃了計劃

1 2 3 4 5
x

音乐人: 吳汶芳

供谱者:reecho
Key=E    Play=E    Capo=0


參考前奏:
e----------------------|---------------------------|
B----------------------|---------------------------|
G----------------------|---------------------------|
D----------------------|---------------------------|
A-------------2-----4--|----5----4-----2-----------|
E-0-----4--------------|--------------------4------|  x2

│   A   │   B   │

e----------------------|
B----------------------|
G----------------------|
D----------------------|
A-------------2-----4--|
E-0-----4--------------|


│   B   │

E       E
喔 又差一點
    E       A  B
改變又顛倒計劃好的事~件
  E       E
時間 再少一點
    E       A  B
多一點都不行吃掉了一~切

A       A     B     B
在這節骨眼 追不上的是世界的改變
A       A     Ab   Ab
在咫尺之間 追不上的是變化的終點

A     B
變化總是吃了計劃
E     Dbm
有點可怕不敢輕視它
A      B  │  E   │ (或彈參考前奏)
變化也許討厭計劃

A     B
有沒有最好的辦法
 Ab    Db
讓變化討厭令一個他
  A    B     E
那我的計劃就能實現啦

間奏:│   A  │   A  │   E   │   E   │ X 2

E       E
我 有些狼狽
    E       A  B
最後一班火車都到了終~點
  E       E
時間 再少一點
    E       A  B
多一點都不行吃掉了一~切

A       A     B     B
在這節骨眼 追不上的是世界的改變
A       A     Ab   Ab
在咫尺之間 追不上的是變化的終點

A     B
變化總是吃了計劃
E     Dbm
有點可怕不敢輕視它
A      B  │  E   │ (或彈參考前奏)
變化也許討厭計劃

A     B
有沒有最好的辦法
 Ab    Db
讓變化討厭令一個他
  A    B     E
那我的計劃就能實現啦

A        B
 如果不能跟上這變化
  Ab   Db 
那就算了吧
   A    B       E
做好心理準備  就不會oh my god!

參考尾奏:
e-------------------------|---------------------------|
B-------------------------|---------------------------|
G-------------------------|---------------------------|
D-------------------------|---------------------------|
A-------------------------|---------4-----6----7------|
E----0-----4-----5-----7--|----7----------------------|

from:www.gtp.tw
Ab=G#(4)=#G(4)
╓—4—┬———┬———┬———┐ 
╟—●—┼———┼———┼———┤ 
╟—●—┼—●—┼———┼———┤ 
╟—●—┼———┼—●—┼———┤ 
╟—●—┼———┼—●—┼———┤ 
╙—●—┴———┴———┴———┘
C#m=#Cm(4)=Dbm
╓—4—┬———┬———┬———┐ 
╟—●—┼—●—┼———┼———┤ 
╟—●—┼———┼—●—┼———┤ 
╟—●—┼———┼—●—┼———┤ 
╟—●—┼———┼———┼———┤ 
╙—x—┴———┴———┴———┘
C#(4)=#C(4)=Db
╓—4—┬———┬———┬———┐ 
╟—●—┼———┼—●—┼———┤ 
╟—●—┼———┼—●—┼———┤ 
╟—●—┼———┼—●—┼———┤ 
╟—●—┼———┼———┼———┤ 
╙—x—┴———┴———┴———┘

添加到谱单
X

添加到谱单

《 變化總是吃了計劃 -- 吳汶芳 》加入
◎ 选择已有谱单 创建新的

公开 (默认不公开,欢迎创建有意思的"公开谱单")

创建取消

推荐语(选填)

X

请先登录chord4


忘记密码