歌手头像-廖文強

其實沒有那麼寂寞

1 2 3 4 5
x

音乐人: 廖文強

供谱者:reecho
詞曲:廖文強 (CAPO:1)

前奏與主歌:

   Bm7(#5)        D/#F  Cadd9
||-3-----2--------------0----|--------------------------
||-3-----3-----0--3--3--3----|--------3-----3-----------
||-2-----------0--2--2--0----|--------0-----0-----------
||-------------------0-------|--------------------------
||-2--2-----2-----------3----|--3-----------------3-----
||-------------0--2----------|--------------------------
                               Bm7(#5)       D/#F   Cadd9
  --------------------------|--3-----2-----------0-------|
  --------------------------|--3-----3-----0--3--0--3L---|
  0-----2-----------0-------|--2-----------0--2-----0L---|
  0-----0-----0h-2-----0----|-----------------------2L---|
  --------------------------|--2--2-----2-----------3L---|
  --------------------------|--------------0--2----------|

  ---------------------------------------------------||
  --3--------------------3--------------0h-1--0------||
  --0-----------0--------0--------------0h-2--0------||
  --2-----------0------------------------------------||
  --3-----3-----------3-----------3------------------||
  ---------------------------------------------------||

:如果累了就早點休息吧        |  等了整晚只爲等你的消息
:這個世界沒有太值得你牽掛    |  卻只等到討人厭的廣告簡訊
:如果忘了就忘得乾淨吧        |  滿街都是喧囂吵鬧的聲音
:這段旅程還有更多可以收藏    |  沒有一個字是因爲我而有意義


bridge:

  Em                                        C
--------------0-------------------------------------|
--0-----------0--------0--1s-3--0-----3-----5L------|
--0--------------------0--2s-4--0-----0-----0L------|
--2-------------------------------------------------|
--2-----------------------------------2-----3L------|
--0-----0-----------0-------------------------------|

--------------7--------7----------------------------|
--5-----------5--------5----------------------------|
--0-----------0--------0--------------0-----0h-2----|
--------------------------------------0-------------|
--3-----3-----------3-----------3-------------------|
----------------------------------------------------|

:其實沒有那麼寂寞
     F         D(add11no5)(x54030)
:只是對幸福太過苛求


前兩次副歌:
          Cadd9 D/#F  Em
:說真的 沒什麼好哭的對吧
   G      Cadd9 D/#F  Em
:人總會 學著在孤單裏長大
   G     Cadd9 D/#F Em 
:也沒有什麼悲傷不值得遺忘
     F            Dadd11no5    (回前奏)
:而後來 我們終將習慣 在悲傷中勇敢

最後一次副歌:
          Cadd9 D/#F  G
:說真的 沒什麼好哭的對吧
          Cadd9 B7    Em  /A /G /#F
:人總會 學著在孤單裏長大
         Cadd9 D/#F Em A
:也沒有什麼悲傷不值得遺忘
     C            F            C Gadd11 G
:而後來 我們終將習慣 在悲傷中勇敢

尾奏:
     F            Dadd11no5
:你知道 總會有人在遠方 等著你回家
添加到谱单
X

添加到谱单

《 其實沒有那麼寂寞 -- 廖文強 》加入
◎ 选择已有谱单 创建新的

公开 (默认不公开,欢迎创建有意思的"公开谱单")

创建取消

推荐语(选填)

X

请先登录chord4


忘记密码