歌手头像-側田

愛的習慣

1 2 3 4 5
x

音乐人: 側田

供谱者:reecho
(前奏)|--------0-------0----0--|--------0---------------|
        |-----------2------------|-----------3--3---------|
        |-----2--------1----0----|-----2-----------2------|
        |--2---------------------|--4----------------3----|
        |------------------------|---------------------4--|
        |------------------------|------------------------|
A       E          #Fm    #Cm
  叫我怎假設從來沒有 你這對象
    D       A   D   E       D
即使可當你是朋友同樣有一樣下場
  E           #Cm #Fm         D     A
當跟你錯到半路上可改變過去當沒有福遇上
      D     E
都想見識有多傷
A       E          #Fm    #Cm
  叫我怎假設從來沒有笑得燦爛
    D       A   D   E       D
即使興奮惹來難過難道我真可以揀
  E           #Cm #Fm         D     A
當猜到過去快腐爛竟可理智到戒掉愛的習慣
      D     E
不必愛比愛簡單
      A       E       #Fm #Cm
如早知滿足我的令我哭的都是你
      D       A       D     E
仍不會爲了避免分手所以堅拒一起
    D       E       #Cm     #Fm
戀愛沒早知也懶知以後和誰談天說地
    D       A       D     E
爲着不敢不愛我仍勇於浪費心機
      A       E       #Fm #Cm
從開始你的背影沒有迫我親近你
      D       A       D     E
離開也沒法後悔忽略別人但選擇你
    D       E       #Cm     #Fm
這要是劫數也決不退避真敬佩自己   
    D   A      D       E   A
期望得到一個人   不管失去運氣
(間奏)|--------0-------0----0--|--------0---------------|
        |-----------2------------|-----------3--3---------|
        |-----2--------1----0----|-----2-----------2------|
        |--2---------------------|--4----------------3----|
        |------------------------|---------------------4--|
        |------------------------|------------------------|
A       E          #Fm    #Cm
  叫我怎假設從來共你各走各路
    D       A   D   E       D
今生失去那段時間能換哪一種美好
  E           #Cm #Fm         D     A
雖好到世界也羨慕竟推算到快樂至肯共舞
      D    E     D   E
得好報便相好   誰可做到
      A       E       #Fm #Cm
如早知滿足我的令我哭的都是你
      D       A       D     E
仍不會爲了避免分手所以堅拒一起
    D       E       #Cm     #Fm
戀愛沒早知也懶知以後和誰談天說地
    D       A       D     E
爲着不敢不愛我仍勇於浪費心機
      A       E       #Fm #Cm
從開始你的背影沒有迫我親近你
      D       A       D     E
離開也沒法後悔忽略別人但選擇你
    D       E       #Cm     #Fm
這要是劫數也決不退避真敬佩自己
    D   A      D       E   A
其實喜歡一個人  不開心也合理
(尾奏)|--------0-------0----0--|--------0---------------|
        |-----------2------------|-----------3--3---------|
        |-----2--------1----0----|-----2-----------2------|
        |--2---------------------|--4----------------3----|
        |------------------------|---------------------4--|
        |------------------------|------------------------|
不必需要動機  捨得憎我也歡喜
添加到谱单
X

添加到谱单

《 愛的習慣 -- 側田 》加入
◎ 选择已有谱单 创建新的

公开 (默认不公开,欢迎创建有意思的"公开谱单")

创建取消

推荐语(选填)

X

请先登录chord4


忘记密码