歌手头像-五月天

擁抱

1 2 3 4 5
x

音乐人: 五月天

供谱者:reecho
編配者(轉載來源):asahll (提供)
-----------------------------------------------------------------------


 Fmaj7          Em           Dm7          C
e|--------0-----------0----|--------1-----------0----|
B|-----------1-----------0-|-----------1-----------1-|
G|-----2-----------0-------|-----2-----------0-------|
D|--3-----------2----------|--0----------------------|
A|-------------------------|--------------3----------|
E|-------------------------|-------------------------|     X2


Fmaj7   Em      Dm7     C
脫下長日的假面 奔向夢幻的疆界
Fmaj7   Em      Dm7     C
南瓜馬車的午夜 換上童話的玻璃鞋
Fmaj7   Em      Dm7     C
讓我享受這感覺 我是孤傲的薔薇
Fmaj7   Em      Dm7       C
讓我品嚐這滋味 紛亂世界的不瞭解

Fmaj7 ↑↑↑↓ / Em↑↑↑↓ / Dm7 ↑↑↑↓ / C↑↑↑↓
#
Fmaj7     Em        Dm7     C
昨天太近 明天太遠 默默聆聽那黑夜
Fmaj7     Em      Dm7     C
晚風吻盡 荷花葉 任我醉倒在池邊
##
Fmaj7       Em      Dm7   C
等你清楚看見我的美 月光曬乾眼淚
Fmaj7        Em               Dm7          C
哪一個人                                    愛我
Fmaj7        Em               Dm7           C
將我的手                                    緊握
Fmaj7      Em               Dm7           C
抱緊我    吻我 喔        愛           別走

Fmaj7 ↑↑↑↓ / Em↑↑↑↓ / Dm7 ↑↑↑↓ / C↑↑↑↓ / X1
 Fmaj7          m            Dm7          C
e|--------0-----------0----|--------1-----------0----|
B|-----------1-----------0-|-----------1-----------1-|
G|-----2-----------0-------|-----2-----------0-------|
D|--3-----------2----------|--0----------------------|
A|-------------------------|--------------3----------|
E|-------------------------|-------------------------|     X1
Fmaj7   Em      Dm7     C
隱藏自己的疲倦 表達自己的狼狽
Fmaj7   Em      Dm7     C
放縱自己的狂野 找尋自己的明天
Fmaj7   Em      Dm7     C
向你要求的誓言 就算是你的謊言
Fmaj7   Em      Dm7       C
我需要愛的慰藉 就算那愛已如潮水
Fmaj7 
╓———┬———┬———┬———┐ 
╟—●—┼———┼———┼———┤ 
╟———┼—●—┼———┼———┤ 
╟———┼———┼—●—┼———┤ 
╟—×—┼———┼———┼———┤ 
╙———┴———┴———┴———┘ 
添加到谱单
X

添加到谱单

《 擁抱 -- 五月天 》加入
◎ 选择已有谱单 创建新的

公开 (默认不公开,欢迎创建有意思的"公开谱单")

创建取消

推荐语(选填)

X

请先登录chord4


忘记密码