歌手头像-陳楚生

某某

1 2 3 4 5
x

音乐人: 陳楚生

供谱者:reecho
專輯:《冬去春來》
歌手:陳楚生 
編配者:as10071 
-------------------------------------------------------------------------------
Key=G#   Play=G   Capo=1

e|---------------------------------------------------------------------------|
B|----35-3------------------------------------------------------------------|
G|-----------2/4 2---0--2--4-----------0---0-------0---2----4----2-----------|
D|-5--------------------------0--02-----------2--------------------4---0----|
A|---------------------------------------------------------------------------|
E|---------------------------------------------------------------------------|


e|-------------------------------------------1-------------------------------|
B|----35-3---------------------3---34----------4--3----1-0--01----13-----|
G|-----------2/4-2---0--2--4-------------------------------------------------|
D|---------------------------------------------------------------------------|
A|---------------------------------------------------------------------------|
E|---------------------------------------------------------------------------|



| /  上滑
|   下滑
| h  擊弦
| p  推絃
| ~  顫音
| +  和聲
| x  悶音
===============================================================================

G
還記得某年某月的某一天
Em
你坐在酒吧吧檯的角落裏
Am
點燃一支菸熄滅了昨天
D
回憶變成一圈圈

G
還記得某年某月的某一天
Em
你搭錯巴士來到了某地點
Am
無所謂時間無所謂地點
   C    D   G
誰會出現這一天


          G    D
你渴望得到愛情保護
   Em        C
受傷時有人去哭
         G
不奢求多銘心刻骨
  Em         C      D  
偶爾的在乎無奈他都不給
          G      D
你總是無法習慣孤獨
   Em      C
喝醉時一個人哭
        G 
眼淚把現實都模糊
       Em     C       D
過去一幕幕放縱的愛不能

          G    D
你渴望得到愛情保護
   Em        C
受傷時有人去哭
         G
不奢求多銘心刻骨
  Em         C      D  
偶爾的在乎無奈他都不給
          G      D
你總是無法習慣孤獨
   Em      C
喝醉時一個人哭
         G        Em
怎麼那麼多的情人都那麼傷人
   C       D      G
還有誰會爲愛守一生
添加到谱单
X

添加到谱单

《 某某 -- 陳楚生 》加入
◎ 选择已有谱单 创建新的

公开 (默认不公开,欢迎创建有意思的"公开谱单")

创建取消

推荐语(选填)

X

请先登录chord4


忘记密码