歌手头像-周興哲

你,好不好?

1 2 3 4 5
x

音乐人: 周興哲

供谱者:crony
你,好不好?
歌手:周興哲
編配者:謝小賀
--------------------------------------
原調: 1=Bb  選調: 1=G  Capo=3
  


start_of_tab
|-------------------|-----------|---------|--------|
|--3-3----0-0--0-0--|--3-3-3-3--|---------|-3-3----|
|-----2-2-----2-----|2---------0|-0-0--0-0|---2-4--|
|0-----------0------|-----0-----|4----4---|--4---45|
|-------------------|-----------|----2----|2-------|
|-------3-----------|2----------|0--------|--------|

|---------0--0-3-2-|---------0--0-5-3-|---------0--0-3|
|-----0--0--0------|3----3--3--3------|1----1--1--1---|
|----0--0--0-------|----2--2--2-------|----0--0--0----|
|2--2--2-----------|---4--4-----------|---2--2--------|
|3-3---------------|2-2---------------|0-0------------|
|------------------|------------------|---------------|

|2-------|-----|
|----3---|-3---|
|----2--2|-2---|
|----3-3-|-0---|
|----1---|-----|
|--------|-2---|
end_of_tab

是不[G]是 還那麼[D/F#]愛遲到     [Em]熬夜工作 又睡不好[Bm]
等[C]你 完成你[Bm7]的目[Em]標     要[Am7]戒掉逞強的嗜好[D]

都怪[G]我 把自尊[D/F#]放太高    [Em]沒有把你照顧好[Bm]
驕[C]傲 是脆弱[Bm7]的外[Em]表     最[Am7]怕我的心 你不要[D]

能不能繼續[G]對我哭 對我笑 [D/F#]對我好
繼續讓我[Em]爲你想 爲你瘋 [D]陪你老
你好不[C]好 好想知道[Bm7]      
[Em]別急著[Am7]把回憶都丟掉[D]


我只需要你[G]在身邊 陪我吵 [D/F#]陪我鬧
用好的我 [Em]把過去壞的我 [D]都換掉
好想聽[C]到 你堅決[Bm7]說 愛我[Em]    
可[Am7]惜回不去那一秒[D]   你,好不好?[G]
end_of_chorus

[G] [Bm7] [Bbmaj7] [F] [D]

[Am7] [D] [C] [D7sus4] [G]

      

添加到谱单
X

添加到谱单

《 你,好不好? -- 周興哲 》加入
◎ 选择已有谱单 创建新的

公开 (默认不公开,欢迎创建有意思的"公开谱单")

创建取消

推荐语(选填)

X

请先登录chord4


忘记密码