歌手头像-薛之謙

意外

1 2 3 4 5
x

音乐人: 薛之謙

供谱者:crony
意外
歌手:薛之謙
選調: 1=C  Capo=2
  
start_of_tab
|--0-0----|--2-2---|--3-3---|--3-3--3-|
|-1-1-1-0-|-1-1-1-1|-3-3-3-3|-0-0-0---|
|0-----0--|0-----0-|0-----0-|0-----0--|
|---------|--------|--------|---------|
end_of_tab


[F]我在清晨的路[C]上誰被我遺[Dm]忘
[F]我在深夜裏旅[C]行誰被我遺[Dm]忘
肩上[F]的破舊行[C]囊能收[F]藏多少堅[Dm]強

不如[F]全身赤裸還[C]給我那脆弱 


[C]明知這是一場意[Cmaj]外你要不要[F]來
[C]明知這是一場重[Cmaj]傷害你會不會[F]來
當[Am]瘋狂慢慢從愛情[G7]離開
還[Em]有什麼你值得感[C]慨
如果風景早[F]已都不存[G7]在
我想我誰都不[C]愛

[C#]都不愛 都不愛 [Cmaj]都不愛 都不[F]愛
誰都不[G7]愛
[C#]都不愛 都不愛 [Cmaj]都不愛 都不[C]愛 [Cmaj]愛~


start_of_tab
|------0----------0--3---|
|---1-----1---1----------|
|0----------0------------|
|-----0---------0--------|
end_of_tab

[F]我在清晨的路[C]上誰被我遺[Dm]忘
[F]我在深夜裏旅[C]行誰被我遺[Dm]忘
肩上[F]的破舊行[C]囊能收[F]藏多少堅[Dm]強

不如[F]全身赤裸還[C]給我那脆弱 


[C]明知這是一場意[Cmaj]外你要不要[F]來
[C]明知這是一場重[Cmaj]傷害你會不會[F]來
當[Am]瘋狂慢慢從愛情[G7]離開
還[Em]有什麼你值得感[C]慨
如果風景早[F]已都不存[G7]在
我想我誰都不[C]愛

[C]明知這是一場意[Cmaj]外你要不要[F]來
[C]明知這是一場重[Cmaj]傷害你會不會[F]來
當[Am]瘋狂慢慢從愛情[G7]離開
還[Em]有什麼你值得感[C]慨
如果風景早[F]已都不存[G7]在
我想我誰都不愛
[C] [Cmaj]
[F]誰都不[G7]愛


start_of_tab
|------3----3---------3---|
|---0-----0---0-----0-----|
|0---------------0--------|
|------------------------|
end_of_tab
[C]

      

添加到谱单
X

添加到谱单

《 意外 -- 薛之謙 》加入
◎ 选择已有谱单 创建新的

公开 (默认不公开,欢迎创建有意思的"公开谱单")

创建取消

推荐语(选填)

X

请先登录chord4


忘记密码