歌手头像-薛之謙

其實

1 2 3 4 5
x

音乐人: 薛之謙

供谱者:crony
其實
歌手:薛之謙
選調: 1=C  
start_of_tab
|------------------|------------------|-------0---0-----|
|------0-----------|------0-----------|-------1--1-1----|
|-0-1----1-0-1-----|-0-1----1-0-1-----|-0-1-----0---0---|
|-----0------------|-----0------------|-----0-2---------|

|-2-----2---------|--3-----3----------|----3-------------|
|-1---1---1-------|--1---1---1--------|----1-------------|
|---2-------2-----|----0-------0------|----0-------------|
|-0---------------|--0----------------|----0-------------|
end_of_tab


[F]不需要借[G]口
愛淡[F]了就放[Am]手
我[F]不想聽
你[Dm]也沒說[F] 平靜的[G]交錯

[F]隨便找個[G]理由
決定[Em]了就別[Am]回頭
不愛[Dm]你的人
說[F]什麼都[G]沒用

分開時[F]難過不能[G]說
誰沒誰[Em]不能好好[Am]過
那天我[F]們走了很久[G]沒有爭吵[C]過[Cmaj]
分開時[F]難過不要[G]說
如果被[Em]你一笑而[Am]過
還不如[F]讓你選擇[G]想要的生[C]活

分開後[F]我會笑着[G]說
當朋友[Em]問你關於[Am]我
我都會[F]輕描淡寫[G]彷彿沒愛[C]過
其實我[F]根本沒人[G]說
其實我[Em]沒你不能[Am]活
其實我[F]給你的愛[G]比你想的[C]多

start_of_tab
|-3-2-2-|-3-2-2-|-3-2-2-|-3-2-2-|
|-------|-------|-------|-------|
|-------|-------|-------|-------|
|-0--0--|-0--0--|-0--0--|-0--0--|

|-3-2-2-|-3-2-2-|-3-2-2-|-3-2-2-| 
|-1--1--|-1--1--|-1--1--|-1--1--|
|-------|-------|-------|-------|
|-0-----|-0-----|-0-----|-0-----|

|-5-3-3-|-5-3-3-|-5-3-3-|-5-3-3-|
|-------|-------|-------|-------|
|-------|-------|-------|-------|
|-0--0--|-0--0--|-0--0--|-0--0--|

|-7-5-5-|-7-5-5-|-7-5-5-|-------|
|-------|-------|-------|-------|
|-------|-------|-------|-------|
|-0--0--|-0--0--|-0--0--|-------|
end_of_tab

分開時[F]難過不能[G]說
誰沒誰[Em]不能好好[Am]過
那天我[F]們走了很久[G]沒有爭吵[C]過[Cmaj]
分開時[F]難過不要[G]說
如果被[Em]你一笑而[Am]過
還不如[F]讓你選擇[G]想要的生[C]活
分開後[F]我會笑着[G]說
當朋友[Em]問你關於[Am]我
我都會[F]輕描淡寫[G]彷彿沒愛[C]過
其實我[F]根本沒人[G]說
其實我[Em]沒你不能[Am]活
其實我[F]給你的愛[G]比你想的[C]多

其實我[F]愛你比你[G]想的多得[C]多


start_of_tab
|-2-2-2---5-5-5-2|
|----------------|
|----------------|
|-------0--------|
end_of_tab
[C]

      

添加到谱单
X

添加到谱单

《 其實 -- 薛之謙 》加入
◎ 选择已有谱单 创建新的

公开 (默认不公开,欢迎创建有意思的"公开谱单")

创建取消

推荐语(选填)

X

请先登录chord4


忘记密码