歌手头像-李榮浩

喜劇之王 完整版

1 2 3 4 5
x

音乐人: 李榮浩

供谱者:crony
喜劇之王 完整版
歌手:李榮浩
編配者:filosfino
--------------------------------------
原調: 1=D  選調: 1=C  Capo=2
  
start_of_tab
|------------------------------|
|----0---0---0-------0---------|
|0---0-3-0-3-0-0-2-----2-0-2-0-|
|------------------------------|
end_of_tab


start_of_tab
|-----0-----------2------|
|---0-----------3--------|
|-0-----------2----------|
|------------------------|
end_of_tab



[Am] 我看着[Em7]顆獼猴桃[Am]      
[Dm] 眼淚突[Em7]然被引爆[Am]
我[Dm]可不是可不是[Em7]特別愛鬧
[Dm]這叫做這叫做[Am]心靈感召
[Dm] 不信你[Em7]問李清照

[Am7]~

[Am] 我天生[Em7]不愛炫耀[Am]       
[Dm] 卻太多[Em7]藝術細胞[Am] 
我[Dm]談的情 拍的拖[Em7]也許很少
[Am]中的槍挨的刀[Am]受的煎熬
[Dm] 華麗得[Em7]無法低調[A]

[A]   爲什麼

[Am]全世界的戀 我[G]都失一遍
[Dm]爲所有的悲劇 [Am]當特約演員
我[Dm]傷得斷腸 我[Am]哭得誇張
像[Dm]一套港產片[E7] 爲何
[Am]普天下的淚 我[G]先流一遍
市[Dm]面上的紙巾 都由[F]我代言
站[Dm]在我旁邊 你[Am]不算可憐
這[Dm]也是[E7]種貢[Am]獻

[Am]    

[Am] 被分手[Em7]的那一秒[Am]        [Em7]
[Dm] 我瘋狂[Em7]往海邊跑[Am]
你[Dm]有什麼資格說[Em7]我很無聊
[Am]你那次淋着雨[Am]失控咆哮
[Dm] 廉價小[Em7]說那一套[A]


[A]   爲什麼

[Am]全世界的戀 我[G]都失一遍
[Dm]爲所有的悲劇 當[Am]特約演員
我[Dm]傷得斷腸 我[Am]哭得誇張
像[Dm]一套港產片[E7] 爲何
[Am]普天下的淚 我[G]先流一遍
市[Dm]面上的紙巾 都由[F]我代言
站[Dm]在我旁邊 你[Am]不算可憐
這[Dm]也是[E7]種貢[Am]獻 啦啦啦 (第一拍空)

[F]啦啦啦啦

[Am]    每一天 都活在 電影裏
[Am]面   每一天 都活在 小說裏
[Dm]面   每一天 都活在 K歌裏
[F]面   每一天 都活在 MV裏
[Am7]面   這世界本來就是場

[E7]真人秀表演
[F]實在難避免      幕揭開

[Am]全世界的戀 我[G]都失一遍

爲[Dm]所有的悲劇 當[F]特約演員
我[Dm]傷得斷腸 我[Am]哭得誇張

只[Dm]爲了    [Fm]紅幾    

start_of_tab
|------------------------------|
|----0---0---0-------0---------|
|0---0-3-0-3-0-0-2-----2-0-2-0-|
|------------------------------|
end_of_tab
年




      

添加到谱单
X

添加到谱单

《 喜劇之王 完整版 -- 李榮浩 》加入
◎ 选择已有谱单 创建新的

公开 (默认不公开,欢迎创建有意思的"公开谱单")

创建取消

推荐语(选填)

X

请先登录chord4


忘记密码