歌手头像-劉德華

孤星淚

1 2 3 4 5
x

音乐人: 劉德華

供谱者:reecho
Key=B








   Intro:

   |-------------------------------------------------------------------------------------------|
   |-----------------------------------------------------6-6^-------------Barchord----Barchord-|
   |---6/8-6-------------------------------------------8-----6-6----8^-------------------------|
   |--------6/8--8h9p8--6----------------------------------------8---------G# x 3------A# x 3--|
   |-6--------------------9---9--8/11-11-11-11-11---6------------------------------------------|
   |------------------------7----7/9---9--9--9--9----------------------------------------------|

   |-------------------------------------------------------------------------------------------|
   |-----------------------------------------------------6-6^-------------Barchord----Barchord-|
   |---6/8-6-------------------------------------------8-----6-6----6h8------------------------|
   |--------6/8--8h9p8--6----------------------------------------8---------B x 3-------C# x 3--|
   |-6--------------------9---9--8/11-11-11-11-11---6------------------------------------------|
   |------------------------7----7/9---9--9--9--9----------------------------------------------|

   B    C#     D#m      B     C#  (D#m x 4  F x 4 F# x 4 G# A#)
   我是一滴遠方孤星的淚水 藏在妳身上已幾萬年
   B    C#     D#m      B      C#    D#m
   所有妳的心事都被我看見  讓我溫暖妳的臉

   D#m          C#   D#m
 * 悄悄滑落在妳臉龐 從妳紅色而深情的眼眶
        G#  C#      D#m    (C# x 1)
   離別時的吻 妳有太多感傷
   D#m         C#    D#m
   我滾燙而失去了方向 纏繞著那風中依稀的燈光
      G#  C#      D#m  G# C#   D#m
   沒有了選擇 妳讓我流浪 流浪在夜空
   G#         C#
   流浪使我不再寂寞

   B    C#     D#m      B     C#  (D#m x 4  F x 4 F# x 4 G# A#)
   我是一滴遠方孤星的淚水 藏在妳身上已幾萬年
   B    C#     D#m      B      C#    D#m (C# x 1)
   所有妳的心事都被我看見  讓我溫暖妳的臉
   B    C#     D#m      B     C#  (D#m x 4  F x 4 F# x 4 G# A#)
   我是一滴遠方孤星的淚水 藏在妳身上已幾萬年
   B    C#     D#m      B      C#    D#m (C# x 1)
   所有妳的心事都被我看見  讓我溫暖妳的臉
   B    C#    F#
   在我被吹乾以前(不要再和他見面)

   solo:
     B             D#m                B                    D#m
   |----------------------------------------------------------------------|
   |----------------------------------16-18-18h19-18-----------18-18^-16--|
   |-18^-15--15-18-15--18p15h18p15-------------------18-18-15-------------|
   |-------18-------------------------------------------------------------|
   |----------------------------------------------------------------------|
   |----------------------------------------------------------------------|

     B             G#m               A#m     B
   |-17^^-15-17-15-15-14-15-17-15-14--(段scale太快跟唔到,不過應該系G#m scale)-|
   |-------------------------------------------------------------------------|
   |-------------------------------------------------------------------------|
   |-------------------------------------------------------------------------|
   |-------------------------------------------------------------------------|
   |-------------------------------------------------------------------------|
   Repeat *

   Ending solo:
   |-------------------------------------------------------------------------------------------|
   |-----------------------------------------------------6-6^-------------Barchord----Barchord-|
   |---6/8-6-------------------------------------------8-----6-6----8^-------------------------|
   |--------6/8--8h9p8--6----------------------------------------8---------G# x 3------A# x 3--|
   |-6--------------------9---9--8/11-11-11-11-11---6------------------------------------------|
   |------------------------7----7/9---9--9--9--9----------------------------------------------|

   |------------------------------------------------||-------------||--|
   |-----------------------------------*Barchord----||--*Barchord--||--|
   |---6/8-6----------------------------------------||-------------||--|
   |--------6/8--8h9p8--6-------------B (bar 7) x 1-||---C#m x 1---||--| (*Barchord 由下向上掃一下)
   |-6--------------------9-------------------------||-------------||--|
   |------------------------7----6------------------||-------------||--|
    /     /

添加到谱单
X

添加到谱单

《 孤星淚 -- 劉德華 》加入
◎ 选择已有谱单 创建新的

公开 (默认不公开,欢迎创建有意思的"公开谱单")

创建取消

推荐语(选填)

X

请先登录chord4


忘记密码