歌手头像-張震獄

愛我別走

1 2 3 4 5
x

音乐人: 張震獄

供谱者:crony
愛我別走
歌手:張震獄
編配者:師兔兔
[Cadd9] [Cadd9/B] [Cadd9/Bb] [Am7]
start_of_tab
|------0------|------0------|------0------|------3------|
|----3-----3--|----3-----3--|----3-----3--|----1-----1--|
|--0-----0---0|--0-----0---0|--0-----0---0|--0-----0---0|
|-------------|-------------|-------------|-------------|
|3------------|2------------|1------------|0------------|
|-------------|-------------|-------------|-------------|
end_of_tab
[G#maj7] [Gm7] 
start_of_tab
|-------|-------|
|------4|------3|
|----5--|----3--|
|--5----|--3----|
|-------|-------|
|4------|3------|
end_of_tab

[Cadd9] 我到了這個時候[Cadd9/B]還是一樣
[Cadd9/Bb] 夜裏的寂寞容易[Am7]叫人悲傷
[Dm7] 我不敢想的太多[G]
因爲我[Cadd9]一個人 [G]  [Gsus4]      [G]

[Cadd9] 迎面而來的月光[Cadd9/B]拉長身影
[Cadd9/Bb] 漫無目的地走在[Am7]冷冷的街
[Dm7] 我沒有妳的消息[G]
因爲我[Cadd9]在想妳[G]

start_of_chorus
[C] 愛我[Em7/B]~別走 [Am] 如果[Am7/G]~妳說 [Dm7] 妳不[Dm7/G]~愛~我 [Cadd9]
[E7] 不要聽見妳真[Am7]的說出口 再給我[Dm7]~一點溫柔 [G]
end_of_chorus
start_of_chorus
[C] 愛我[Em7/B]~別走 [Am] 如果[Am7/G]~妳說 [Dm7] 妳不[Dm7/G]~愛~我 [Cadd9]
[E7] 不要聽見妳真[Am7]的說出口 再給我[Dm7]~一點[G]~溫柔 [Cadd9]
end_of_chorus








      

添加到谱单
X

添加到谱单

《 愛我別走 -- 張震獄 》加入
◎ 选择已有谱单 创建新的

公开 (默认不公开,欢迎创建有意思的"公开谱单")

创建取消

推荐语(选填)

X

请先登录chord4


忘记密码