歌手头像-兒歌童謠

鈴兒響叮噹

1 2 3 4 5
x

音乐人: 兒歌童謠

供谱者:crony
鈴兒響叮噹 F調
歌手:兒歌
編配者:小強Steven
選調: 1=F 4/4  



啊[F]衝破大風雪  我們[F]坐在雪橇[Dm]上        [Bb]快奔馳過[C]田野  我們|[F]歡笑又歌唱
馬兒[F]鈴聲響叮噹 令人[F]精神多歡[Dm]暢 我們[Bb]今晚滑雪[C]真快樂  把[Bb]滑雪[C]歌兒[F]唱
[F]叮叮噹 叮叮噹  [F]鈴兒響叮噹   [Bb]今晚滑雪[F]多快樂   我們[Gm]坐在雪橇[C]上  嘿
[F]叮叮噹 叮叮噹  [F]鈴兒響叮噹   [Bb]今晚滑雪[F]多快樂   我們[Gm]坐在[C]雪橇[F]上
start_of_tab
|-------|-------|-------|-------|------ |-------|
|0-0-0--|0-0-0--|0-3- - |0------|1-1-1- |1-0-0- |
|-------|-------|----0-2|------ |-------|-------|
|-------|-------|-------| ----- |-------|-------|
end_of_tab
start_of_tab
|-------|-------|-------|-------|-------|-------|
|0-----0|-----3 |0-0-0--|0-0-0--|0-3- - |0------|
| -2-2 -|2------|-------|-------|----0-2|------ |
|-------| ----- |-------|-------|-------| ----- |
end_of_tab
start_of_tab
|------ |-------|-------|-------| 
|1-1-1-1|1-0-0-0|3-3-0- |------ | 
|-------|-------| - -  2|0------| 
|-------|-------|-------| ----- | 
end_of_tab

      

添加到谱单
X

添加到谱单

《 鈴兒響叮噹 -- 兒歌童謠 》加入
◎ 选择已有谱单 创建新的

公开 (默认不公开,欢迎创建有意思的"公开谱单")

创建取消

推荐语(选填)

X

请先登录chord4


忘记密码