歌手头像-角聲使團

因着信

1 2 3 4 5
x

音乐人: 角聲使團

供谱者:crony
【詩歌】因着信
歌手:角聲使團
編配者:敬拜讚美專輯八
原調: 1=D  選調: 1=C  
start_of_tab
|---|----------- 0-2|5-3-2-3-0--|
|0-1|3-3-0-1-3-3----|-----------|
|---|---------------|----------0|
|---|---------------|-----------|
end_of_tab
start_of_tab
|--------0-2-3-0--|
|1-1-0-1|--------3|
|-------|---------|
|-------|---------|
end_of_tab

憑[C]信,他離別吾[G]珥;因[Am]信全然奉上[Em]愛子
憑[F]信,還有[G]人全力抓[Em]住天[Am]使
羸[F]到祝福[F] 換了名[G]字
憑[C]信,他行近紅[G]海;因[Am]信 連潮浪也分[Em]開
憑[F]信,曾有[G]人被困於[Em]獅子坑[Am]內。
仍[F]敬拜上帝[F],發誓[G]至死不改!
在某[C]天他下決[Em]心圍[Am]繞在城外
憑[F]信放聲呼[Em]喊 城牆[Dm7]便倒塌下來
又有[C]先知被擄[Em]他方常在心[Am]裏靜待
仍[F]確信上帝[Dm7]榮耀會回[G]來!
憑[C]信,我們懷著憑[G]據,因[Am]信,同尋著了應[Em]許
憑[F]信,能夠發[G]現在世間[Em]只是寄[Am]居,
朝[F]更美家鄉[G]走回[C]去!

      

添加到谱单
X

添加到谱单

《 因着信 -- 角聲使團 》加入
◎ 选择已有谱单 创建新的

公开 (默认不公开,欢迎创建有意思的"公开谱单")

创建取消

推荐语(选填)

X

请先登录chord4


忘记密码