歌手头像-劉德華

永遠寂寞

1 2 3 4 5
x

音乐人: 劉德華

供谱者:reecho
Key=F   Play=C   Capo=5



Guitar 1
e|--5----------------------------|
B|----5---8-5-----6-----8---5----|
G|------7-----7-5---7-----7---5--|
D|--------------------8----------|   X 4
A|-------------------------------|
E|-------------------------------|

Guitar 2 (run in at the second time of the above fingering)
e|-----------------------------------------------------|
B|-----------------------------------------------------|
G|-------5h7-7~~--7/9-6-6/8-6~~-6/8--------------------|
D|---5h7-----------------------------------------------|
A|-----------------------------------------------------|
E|-----------------------------------------------------|

e|---------8h10-10~--11/12-11-5h6p5h6------------------|
B|---8h10-----------------------------8/10/8-6p5-5/6---|
G|-----------------------------------------------------|
D|-----------------------------------------------------|
A|-----------------------------------------------------|
E|-----------------------------------------------------|

Am E7
熱鬧的深夜 一個歸家
F G C
此刻終於不必說話
Dm
閉上眼睛別了風沙
Am
前塵如耀眼煙花
F G E7
剎那間涌上再飄下

#
Am E7
熟睡的天地 得我一個
F G C
多想躺於屋頂仰臥
Dm
從前期望達到幾多
Am
旁人明白我幾多
F G Am
我到底想愛甚麼

F G  Em Am
永遠寂寞 真想放棄
Dm
躲開這世界
G7 C E7
去跟妳 再創天地
F G  E Am
永遠寂寞 因想到妳
Dm G7
只得一次 再一次
Am
騙我自己


e|---------------------5^-----------------6^----8^-----|
B|--------------5^-6-8----6--------5^-6^-----8^-8^-----|
G|----------5-7--------------5^-7^---------------------|
D|---5-7-8^--------------------------------------------|
A|-8---------------------------------------------------|
E|-----------------------------------------------------|
Repeat #

Ending

Am
e|-------10-10-10-10-----------------------------------|
B|--8/10-------------10-8-6-8/10-6/8-5-----------------|
G|-----------------------------------------------------|
D|-----------------------------------------------------|
A|-----------------------------------------------------|
E|-----------------------------------------------------|

添加到谱单
X

添加到谱单

《 永遠寂寞 -- 劉德華 》加入
◎ 选择已有谱单 创建新的

公开 (默认不公开,欢迎创建有意思的"公开谱单")

创建取消

推荐语(选填)

X

请先登录chord4


忘记密码