歌手头像-洪塵

從前慢

1 2 3 4 5
x

音乐人: 洪塵

供谱者:crony
從前慢
歌手:洪塵
--------------------------------------
原調: 1=C  選調: 1=C  Capo=(-1)  
start_of_tab
|-------|-------|-------|-------|-------|
|-------|3---3--|3---3--|1---1--|---01--|
|----0--|-------|-------|-------|--0--0-|
|2------|--2---2|--0---0|--2---2|-2----2|
|-------|3------|2------|0------|-------|
|-------|-------|-------|-------|3------|

|----1--|----1--|-------|0------|
|----1--|----1--|----3--|-------|
|--2---2|--4---4|--0---0|-------|
|3------|5------|-------|-------|
|-------|-------|3------|-------|
|-------|-------|-------|-------|

end_of_tab

記得[C9]早先[Em7]少年時
大[Am7]家誠誠懇[Am7/G]懇
說[f]一句[g]是一[C9]句

清[C9]早上[Em7]火車站
[Am7]長街黑暗[Am7/G]無行人
[f]賣豆漿的[g]小店冒着[C9]熱氣

start_of_chorus
從前[C9]的日色[Asus2/B]變得慢
[Am7]車馬[Am7/G]郵件都慢
一[f]生只夠[g]愛一個[C9]人

從前[C9]的鎖[Asus2/B]也好看
[Am7]鑰匙精美[Am7/G]有樣子
[f]你鎖了[g]人家就[C9]懂了
end_of_chorus
start_of_tab
|-------|-------|-------|-------|-------|
|-------|3---3--|3---3--|1---1--|---01--|
|----0--|-------|-------|-------|--0--0-|
|2------|--2---2|--0---0|--2---2|-2----2|
|-------|3------|2------|0------|-------|
|-------|-------|-------|-------|3------|

|----1--|----1--|-------|0------|
|----1--|----1--|----3--|-------|
|--2---2|--4---4|--0---0|-------|
|3------|5------|-------|-------|
|-------|-------|3------|-------|
|-------|-------|-------|-------|

end_of_tab
start_of_chorus
從前[C9]的日色[Asus2/B]變得慢
[Am7]車馬[Am7/G]郵件都慢
一[f]生只夠[g]愛一個[C9]人

從前[C9]的鎖[Asus2/B]也好看
[Am7]鑰匙精美[Am7/G]有樣子
[f]你鎖了[g]人家就[C9]懂了
[f]你鎖了[g]我就[C9]懂了
end_of_chorus





      

添加到谱单
X

添加到谱单

《 從前慢 -- 洪塵 》加入
◎ 选择已有谱单 创建新的

公开 (默认不公开,欢迎创建有意思的"公开谱单")

创建取消

推荐语(选填)

X

请先登录chord4


忘记密码