歌手头像-大小喬

星座

1 2 3 4 5
x

音乐人: 大小喬

供谱者:crony
星座
歌手:大小喬
--------------------------------------
原調: 1=C  start_of_tab
|--0-|--0-|---13|--3-|--0-|--0-|---13|--3-|--0-|--0-|---13|--3-|--0-|--0-|---13|--3-|
|---1|---0|---13|--3-|---1|---0|---13|--3-|---1|---0|---13|--3-|---1|---0|---13|--3-|
|-0--|-0--|-2---|-4-4|-0--|-0--|-2---|-4-4|-0--|-0--|-2---|-4-4|-0--|-0--|-2---|-4-4|
|----|----|3----|5---|----|----|3----|5---|----|----|3----|5---|----|----|3----|5---|
|3---|----|-----|----|3---|----|-----|----|3---|----|-----|----|3---|----|-----|----|
|----|0---|-----|----|----|0---|-----|----|----|0---|-----|----|----|0---|-----|----|

|3---|
|3---|
|4---|
|5---|
|5---|
|3---|
end_of_tab
start_of_tab
|8-12|7---|-----|----|8-12|7---|-----|7---|8-12|7---|----|8---|8-12|7---|----|7---|
|----|--8-|10-- |8-8-|----|----|10-8-|--8-|----|--8-|10-8|--7-|----|--8-|10-8|-8-8|
|----|----|-----|-7--|----|----|-----|----|----|----|----|----|----|----|----|--7-|
|----|----|-----|----|----|----|-----|----|----|----|----|----|----|----|----|----|
|----|----|-----|----|----|----|-----|----|----|----|----|----|----|----|----|----|
|----|----|-----|----|----|----|-----|----|----|----|----|----|----|----|----|----|

|7---|
|8---|
|7---|
|x---|
|x---|
|x---|
end_of_tab
[C]風在[Em]清風[F]遇見[G]你 [C]懸在[Em]天湖上的[F]雲 [F]
[C]兩個[Em]星座[F]遙望夜[G]空 [C]永遠[Em]不能相[F]逢

[C]嗯 [Em]嗯 [F]嗯 [G]嗯 [C]啊 [Em]啊 [F]啊 [G]啊 [C]啊 [Em]啊 [F]啊 [G]啊 [C]啊 [Em]啊 [F]啊 [G] [G]

[C]又是[Em]一輪[F]月高[G]懸 [C]雲端[Em]那邊的[F]天 [F]
[C]兩個[Em]星座[F]遙望夜[G]空 [C]永遠[Em]不能相[F]逢 [F]
[C]兩個[Em]星座[F]遙望夜[G]空 [C]永遠[Em]不能相[F]逢 [F]

      

添加到谱单
X

添加到谱单

《 星座 -- 大小喬 》加入
◎ 选择已有谱单 创建新的

公开 (默认不公开,欢迎创建有意思的"公开谱单")

创建取消

推荐语(选填)

X

请先登录chord4


忘记密码