歌手头像-周冬雨

小風鈴

1 2 3 4 5
x

音乐人: 周冬雨

供谱者:crony
小風鈴
歌手:周冬雨
編配者:海琳娜
start_of_tab
|------0-|-0-2-3--|-2-0----|------0--|
|--------|--------|--------|---0-----|
|--------|--------|--------|---------|
|-0------|--------|-----0--|-0-------|

|---------|--------|--------|
|---1-0---|-1-0----|--------|
|---------|-----2--|-0------|
|-0-----0-|--------|--------|
end_of_tab

 我[C]聽見風兒[G]吹, 它[C]悄悄帶我[Em]飛
 我[Am]看見鳥兒[G]追, 它[F]默默把我[Dm]陪
 我[Am]夢見小花[C]蕾, 她[G7]說落葉人[Am]歸
 [G]爸爸媽媽[F]就快把家[C]回
 
 你們[Am]聽你們[C]聽, 守護[G]的翅膀[Am]聲
 大星[F]星小星[Dm]星, 陪伴[Em]的腳步[G]輕
 小風[Am]鈴叮鈴[C]鈴(67i)
 天使[G]的敲門[Am]聲
 [Dm]帶來[G]了團[C]聚

 每個[C]人都有一把[G]神奇的鑰匙
 [Dm]打開一扇門 通往[Em]神奇的故事
 [G] 歡迎你們來到[C]我的世界
 [Am]看看它的樣[C]子
 [C]風爺爺的[G]鬍子, 吹歪[G]雲寶寶的[C]帽子
 [F]花妹妹的[Dm]裙子, 鉤住[Em]葉姑娘的[G]襪子
 [Am]山爸爸的[G7]肩膀, 長成[Am]樹媽媽的[G]形狀
 [Dm]水哥哥的願望, 是去遠方流[G]浪
  你[C]聽你[Dm]聽, 守護[Dm]的翅膀[C]聲
 大[C]星星小星[Dm]星, 陪伴[Dm]的腳步[C]輕
 小風[C]鈴叮鈴[Dm]鈴  [G7] 叮鈴[G]鈴
 [G] 天使的[Am]敲門聲
 [G]帶來了團[C]聚
end_of_chorus

      

添加到谱单
X

添加到谱单

《 小風鈴 -- 周冬雨 》加入
◎ 选择已有谱单 创建新的

公开 (默认不公开,欢迎创建有意思的"公开谱单")

创建取消

推荐语(选填)

X

请先登录chord4


忘记密码