歌手头像-蘇頔

南山南

1 2 3 4 5
x

音乐人: 蘇頔

供谱者:crony
南山南
歌手:蘇頔
--------------------------------------
原調: 1=D  選調: 1=C  Capo=2
  
start_of_tab
|-7-----5----|3-----0--3-5|-7-----5--2-|3----3-7|--------------
|-8--8--3-3-3-0--0--1-------8--8--3-----0---3--8-------------
|-7-7-7-2-----0-0-0-0-0-----7-7-7-2-2-2-0-24---7--------------------------
|-0-----0-12--2-----2-------0-----0-----0------0-------
     
end_of_tab


[F]你在南方的[G]豔陽裏
[Em7]大雪紛[Am]飛
[Dm]  我在北方的[G]寒夜裏
四季[C]如春
如果[F]天黑之前[G]來得及
我要[Em7]忘了你的眼[Am]睛
窮極[Dm]一生
做不[G]完一場[C]夢
他[C]不再和誰[G]談論相逢的[Am]孤島
[Em7]  因爲[F]心裏早已[G]荒無人[C]煙
他的[C]心裏再裝[G]不下一個[Am]家
[Em7]  做一[F]個只對[G]自己說謊的[C]啞巴
他說[F]你任何爲人稱道[G]的美麗
不及他[Em7]第一次遇見[Am]你
[Dm]  時光苟延[G]殘喘
無可[C]奈何
如果[F]所有土地連[G]在一起
走上一[Em7]生只爲擁抱[Am]你
[Dm]  喝醉了他[G]的夢
晚[C]安
start_of_tab
|-7-----5----|3-----0--3-5|-7-----5--2-|3----3-7|--------------
|-8--8--3-3-3-0--0--1-------8--8--3-----0---3--8-------------
|-7-7-7-2-----0-0-0-0-0-----7-7-7-2-2-2-0-24---7--------------------------
|-0-----0-12--2-----2-------0-----0-----0------0-------
end_of_tab

他[C]聽見有人[G]唱着古老的[Am]歌
[Em7]  唱着[F]今天還[G]在遠方發[C]生的
像在[F]她眼睛裏看到[G]的孤島
沒有悲傷[Em7]但也沒有花[Am]朵
start_of_tab
|0-0-0---2-3-2-0-|2-------0-3----|0---0----0-0-0-0-|
|1-----1-3--------3-3-3-3---0--0--1--1-3-1-1-1-1-1--
|0-------2--------4---------0-0-0-2-2--0-----0-0-0--
|2-------0--------0---------2-----2----2-----2-2-2---

start_of_tab
|------0-0-0-2-2-2-2-|---
|3-3-3-3-3-3-3-3-3-3-----
|2-2-2-2-2-2-2-2-2-2------

|0-0-0-0-0-0-0-0-0-0-----
end_of_tab

[F]你在南方的[G]豔陽裏
[Em7]大雪紛[Am]飛
[Dm]  我在北方的[G]寒夜裏
四季[C]如春
如果[F]天黑之前[G]來得及
我要[Em7]忘了你的眼[Am]睛
窮極[Dm]一生
做不[G]完一場[C]夢
大夢[Dm]初醒荒[G]唐了一[C]生
end_of_tab

[C]南山[G]南
[Am]北秋[F]悲
[C]南山[G]有谷[C]堆
[C]南風[G]喃
[Am]北海[F]北
[C]北海[G]有墓[C]碑
end_of_tab

[C]南山[G]南
[Am]北秋[F]悲
[C]南山[G]有谷[C]堆
[C]南風[G]喃
[Am]北海[F]北
[C]北海[G]有墓[C]碑
end_of_tab
[C]北海[G]有墓[C]碑

      

添加到谱单
X

添加到谱单

《 南山南 -- 蘇頔 》加入
◎ 选择已有谱单 创建新的

公开 (默认不公开,欢迎创建有意思的"公开谱单")

创建取消

推荐语(选填)

X

请先登录chord4


忘记密码