歌手头像-吳吞

一萬個名字

1 2 3 4 5
x

音乐人: 吳吞

供谱者:crony
一萬個名字
歌手:吳吞
編配者:ALAN
(前奏)(間奏1)(4遍): 
start_of_tab
-|----3------2------1------0-----|- 
-|---0-0----0-0----0-0----0------|- 
-|--0---0--0---0--0---0--0-------|- 
-|-------------------------------|- 
-|-3------2------1------0----1-2-|- 
-|-------------------------------|-
end_of_tab 
(間奏2)(間奏3:與間奏2相似,高品位爬的更高):
start_of_tab
-|----3------2------1------0-----|----3------2------1------0----- 
-|---0-0----0-0----0-0----0------|---0-0----0-0----0-0----0------ 
-|--0---0--0---0--0---0--0-------|--0---0--0---0--0---0--0------- 
-|-------------------------------|------------------------------- 
-|-3------2------1------0----1-2-|-3------2------1------0-1-2- 
-|-------------------------------|------------------------------- 

-|----3------4------5------6---|----7-------6------5------4---| 
-|---0-0----0-0----0-0----0-0--|---0-0-----0-0----0-0----0-0--| 
-|--0---0--0---0--0---0--0---0-|--0---0---0---0--0---0--0---0-| 
-|-----------------------------|------------------------------| 
-|-3------4------5------6------|-7-------6------5------4------|
-|-----------------------------|------------------------------|
end_of_tab 

(前奏) 
人[C]類 將不再吃糧[C]食  
不再做[C]愛 生兒育[G7]女 
監獄[C]裏 已沒有囚[C]犯 
醫院[G7]裏 也沒有病[C]人 

圍繞在[Fmaj7]每一個人身邊的物[C]質 
與[G7]每一個物質周圍的[C]人 
[Fmaj7]每時每刻都在等[C]待 
這個美[G7]妙時刻的到[C]來 


[C]飛機落在樹梢[C]上  
小汽[C]車們停泊在水[G7]面 
樹木[C]彷彿還在生[C]長  
結滿[G7]了五顏六色的石[C]頭 

[Fmaj7]這是多麼美妙的時[C]刻 x4 (同副歌) (G7 - C,Fmaj7 - C,G7多麼 - C ) 

(間奏1 同前奏)  
我[C]們去大理的古城[C]吧 
那裏的[C]男人和女[G7]人 
頭戴[C]花環腰間圍着樹[C]葉  
站在[G7]大街邊的櫥窗[C]裏 

他們的[Fmaj7]身體就是我們的果[C]實  
我們的[G7]微笑就是他們的證[C]據 
我們的[Fmaj7]微笑就是他們的果[C]實 
他們的[G7]身體就是我們的證[C]據 

聽說[C]那裏的人 都有良好的[C]自我感覺 
你不[C]覺得嗎? 你真的沒有發[G7]現嗎? 
那裏[C]缺少一個感覺很差[C]的人 
我們[G7]去吧填補這個空[C]白 

讓[Fmaj7]所有的孩子成爲一枚原子[C]彈 
讓物[G7]質有隨時釋放荷爾蒙的權利和[C]自由 
讓[Fmaj7]自私與貪婪成爲最高級的[C]享受 
讓[G7]友誼和平凡成爲奢侈[C]品 

我們的[Fmaj7]身體就是他們的果[C]實  
他們的[G7]微笑就是我們的證[C]據 
他們的[Fmaj7]微笑就是我們的果[C]實 
我們的[G7]身體就是他們的證[C]據 


(間奏) 

[C]甘地 得到了[C]它  
一個[C]印度人殺死了甘[G7]地  
馬丁[C]路德金 得到了[C]它 
美國[G7]人幹掉了馬丁路德[C]金 

[Fmaj7]曼德拉得到了[C]它  
成爲[G7]南非的第一個黑人總[C]統 
一個[Fmaj7]中國人也得到了[C]它 
他現[G7]在卻回不了[C]家 
 
這是一[C]個黑色的玩[C]笑 
還是一[C]個美麗的陷[G7]阱 
反正[C]所有的祕密都在公[C]開 
誰也不[G7]能再把自己藏起[C]來 
 
反正[Fmaj7]我們有各種各樣的理[C]由 
[G7]解釋我們的所作所[C]爲 
反正[Fmaj7]我們有各種各樣的借[C]口 
[G7]滿足我們的所思所[C]想 

[Fmaj7]下一屆的諾貝爾和平[C]獎  
會頒[G7]發給全中國的每一個[C]人 
[Fmaj7]提高我們的GD[C]P 
[G7]帶動我們的人民內[C]需 
 
反正[Fmaj7]總有一屆的諾貝爾和平[C]獎 
會頒[G7]發給全世界的每一個[C]人 
[Fmaj7]每一個生命每一個公[C]民 
再也[G7]不用害怕有人生活的比他[C]好 
每一[Fmaj7]個動物植物每一個細[C]胞 
再也[G7]不用害怕有人生活的比他[C]好 
[Fmaj7]每一個充滿荷爾蒙的原子[C]彈 
再也[G7]不用害怕有人生活的比他[C]好 x4 

[G7]再也不用害怕...(間奏3)

      

添加到谱单
X

添加到谱单

《 一萬個名字 -- 吳吞 》加入
◎ 选择已有谱单 创建新的

公开 (默认不公开,欢迎创建有意思的"公开谱单")

创建取消

推荐语(选填)

X

请先登录chord4


忘记密码