歌手头像-小娟&山谷裏的居民

如果

1 2 3 4 5
x

音乐人: 小娟&山谷裏的居民

供谱者:crony
《如果》彈唱版初級難度★
歌手:小娟
編配者:SOLO
--------------------------------------
原調: 1=G  選調: 1=C    
[C]                          [F]                                     
start_of_tab                       
|-3-----3-------3-|-0-----0-------0-|
|-----0-------0---|-----1-------1---|
|---0-------0-----|---0-------0-----|
|-0---------------|-2---------------|
end_of_tab
[C]                           [G7] 
start_of_tab                       
|-3-----3-------3-|-2-----2-------2-|
|-----0-------0---|-----3-------3---|
|---0-------0-----|---2-------2-----|
|-0---------------|-0---------------|
end_of_tab


[C]如果你是[F]朝露___[C]我願是那[G7]小草___
[C]如果你是[F]那片雲_[C]我願[G7]是那[C]小雨___

[F]永遠與你[C]相偎依_[F]於是我將[G7]知道___
[C]當我伴着你[F]守着你時[C]會是___[G7]多麼___[C]綺麗___


start_of_chorus
[C]如果你是[F]那海___[C]我願是那[G7]沙灘___
[C]如果你是[F]那陣煙_[C]我願[G7]是那[C]輕風___

[F]永遠與你[C]相偎依_[F]於是我將[G7]知道___
[C]當我伴着你[F]守着你時[C]會是___[G7]多麼___[C]甜蜜___
end_of_chorus

      

添加到谱单
X

添加到谱单

《 如果 -- 小娟&山谷裏的居民 》加入
◎ 选择已有谱单 创建新的

公开 (默认不公开,欢迎创建有意思的"公开谱单")

创建取消

推荐语(选填)

X

请先登录chord4


忘记密码