歌手头像-方皓玟

分手總要在雨天

1 2 3 4 5
x

音乐人: 方皓玟

供谱者:crony
分手總要在雨天
歌手:方皓玟
編配者:JamieC
start_of_tab
|-5------5----5-5-5-5--|-5------5----5-5-5-5---|
|----2-----2-----------|----3-----3----------3-|
|----------------------|-----------------------|
|-2-2--2-2---2-2-2-2-2-|-2-2--2-2---2-2-2-2-2-2|

|-5------5----5-5-5-5---|-5------5----5-5-5-5---|
|----2-----2----------2-|----3-----3----------3-|
|-----------------------|-----------------------|
|-2-2--2-2---2-2-2-2-2-2|-2-2--2-2---2-2-2-2-2-2|
end_of_tab



start_of_chorus
我已經[D]不可以 跟你做[G]朋友
連[A]人生 都[D]迷失
努力愛[G]一個人 [F#m]都不[Bm]夠
[G]一時的享受 能熱[A]暖多久

最美好[D]的一切 請你別[G]研究
誰[A]值得 不[D]值得
愛你不[G]需理由 [F#m]我卻[Bm]知
[G]錯過後哪可回[A]頭
end_of_chorus

start_of_chorus
曾聽說[D]雨天總要放手 [D7]總要分手
曾更你[G]約定下個夏季 浪[A]漫旅遊
明日看[F#m]雨點灑到滿天 [B7]總會掛念
我[Em]會隱藏[A7]我淚[D]腺
end_of_chorus

start_of_tab
|-5------5----5-5-5-5--|-5------5----5-5-5-5---|
|----2-----2-----------|----3-----3----------3-|
|----------------------|-----------------------|
|-2-2--2-2---2-2-2-2-2-|-2-2--2-2---2-2-2-2-2-2|

|-5------5----5-5-5-5---|-5------5----5-5-5-5---|
|----2-----2----------2-|----3-----3----------3-|
|-----------------------|-----------------------|
|-2-2--2-2---2-2-2-2-2-2|-2-2--2-2---2-2-2-2-2-2|
end_of_tab
start_of_chorus
最美好[D]的一切 請你別[G]研究
誰[A]值得 不[D]值得
愛你不[G]需理由 [F#m]我卻[Bm]知
[G]錯過後那可回[A]頭

最美好[D]的一切 請你別[G]研究
誰[A]值得 不[D]值得
愛你不[G]需理由 [F#m]我卻[Bm]知
[G]錯過後哪可回[A]頭
end_of_chorus

start_of_chorus
曾聽說[D]雨天總要放手 [D7]總要分手
曾更你[G]約定下個夏季 浪[A]漫旅遊
明日看[F#m]雨點灑到滿天 [B7]總會掛念
我[Em]會隱藏[A7]我淚[D]腺
end_of_chorus

start_of_chorus
[G]說再見 爲[A]何不見
我[F#m]的天 太[B7]心慌意亂
[Em]這陣痛 又[A]蔓延

如果說[D]雨天總要放手 [D7]總要分手
如果再[G]見面學會面對 世[A]界轉變
明日看[F#m]雨點灑到滿天 [B7]總會掛念
我[Em]會隱藏[A7]我淚[D]腺
[Em]分手[A7]總要在雨[D]天


start_of_tab
|-5------5----5-5-5-5--|-5------5----5-5-5-5---|
|----2-----2-----------|----3-----3----------3-|
|----------------------|-----------------------|
|-2-2--2-2---2-2-2-2-2-|-2-2--2-2---2-2-2-2-2-2|

|-5------5----5-5-5-5---|-5------5----5-5-5-5---|
|----2-----2----------2-|----3-----3----------3-|
|-----------------------|-----------------------|
|-2-2--2-2---2-2-2-2-2-2|-2-2--2-2---2-2-2-2-2-2|
end_of_tab

      

添加到谱单
X

添加到谱单

《 分手總要在雨天 -- 方皓玟 》加入
◎ 选择已有谱单 创建新的

公开 (默认不公开,欢迎创建有意思的"公开谱单")

创建取消

推荐语(选填)

X

请先登录chord4


忘记密码