歌手头像-U初級彈奏

小星星

1 2 3 4 5
x

音乐人: U初級彈奏

供谱者:crony
小星星
歌手:U初級彈奏
編配者:海那邊的山裏人
--------------------------------------
原調: 1=C  


start_of_tab
|--------------|--0--0--------|--------------|
|--------3--3--|--------3--3--|--1--1--0--0--|
|--0--0--------|--------------|--------------|
|--------------|--------------|--------------|
end_of_tab
start_of_tab
|--------------|--------------|--------------|
|--------------|--3--3--1--1--|--0--0--------|
|--2--2--0--0--|--------------|--------2--2--|
|--------------|--------------|--------------|
end_of_tab
start_of_tab
|--------------|--------------|--------------|
|--3--3--1--1--|--0--0--------|--------3--3--|
|--------------|--------2--2--|--0--0--------|
|--------------|--------------|--------------|
end_of_tab
start_of_tab
|--0--0--------|--------------|-------------|
|--------3--3--|--1--1--0--0--|-------------|
|--------------|--------------|--2--2--0--0-|
|--------------|--------------|-------------|
end_of_tab

      

添加到谱单
X

添加到谱单

《 小星星 -- U初級彈奏 》加入
◎ 选择已有谱单 创建新的

公开 (默认不公开,欢迎创建有意思的"公开谱单")

创建取消

推荐语(选填)

X

请先登录chord4


忘记密码