歌手头像-魏晨         編譜:格子圍巾

過客

1 2 3 4 5
x

音乐人: 魏晨 編譜:格子圍巾

供谱者:crony
過客
歌手:魏晨         編譜:格子圍巾
Capo=3
  

[G]                                                    [Bm]                         [G]                                                          
start_of_tab
|---------------|---------------|----0-0---0----|---------------|
|----0---1-0----|0-1-0---1-0---0|0---0-0-----0--|1-0---------1-0|
|0-----0-----2-0|0-----0-----2--|0-------0-----0|0---2-0-----0--|
|--0------------|---------------|--0------------|----------0----|
|---------------|---------------|0--------------|0--------------|
|0--------------|0--------------|---------------|--------0------|
end_of_tab
[G]
start_of_tab
|---------------|
|--3-1-0--------|
|--0------------|
|0--------------|
|---------------|
|--0------------|
end_of_tab
 [G]           [D]            [Em]                             [C]              [D]
 沉默      代    表     什    麼                       也許  是 依 賴      太 過 執
眷戀      還    在     拉    扯                       要怎  麼 附 和      沒 有 把  
[Em]            [G]               [D]           [Em]
  着         想  念      不       停       揮     霍                     曾經  那 份 承諾
握         汗  水      不       會       灑     脫                      悲傷 無 法 抹去 
[D]             [G]                               [C]                [D]             [Bm]
   已 不 屬 於   我                       那時的    天   空      常 常 是 藍   色
 曾 有 的 忐   忑 
  [Bm]        [C]              [D]           [G]                            [C]    
 回憶       爲何             悄悄地變      了                     原來  緊握的雙     
[D]            [Bm]                            [C]              [D]
手               漸漸鬆開      了   距離  幸    福還       遠遠的            如果靠
[G]            [D]               [Em]           [Bm]             [C]            [G]
想       象     可  以 描 繪   你  的  輪    廓      放        我 在 角 落  獨自 品 嘗  
 [C]             [D]              [G]              [D]              [Em]          [Bm] 
自  己  的    軟       弱       孤       單    怎 麼 取 舍     開 始 懂     了        懷 
  [C]             [D]                [G]                      [C]            [D] 
念 早 失 去   了        顏        色                你   只 是 美 麗    的     過
[G]                                                    [Bm]                         [G]                                                          
start_of_tab
|---------------|---------------|----0-0---0----|---------------|
|----0---1-0----|0-1-0---1-0---0|0---0-0-----0--|1-0---------1-0|
|0-----0-----2-0|0-----0-----2--|0-------0-----0|0---2-0-----0--|
|--0------------|---------------|--0------------|----------0----|
|---------------|---------------|0--------------|0--------------|
|0--------------|0--------------|---------------|--------0------|
end_of_tab
客
[G]
start_of_tab
|---------------|
|--3-1-0--------|
|--0------------|
|0--------------|
|---------------|
|--0------------|
end_of_tab

      

添加到谱单
X

添加到谱单

《 過客 -- 魏晨 編譜:格子圍巾 》加入
◎ 选择已有谱单 创建新的

公开 (默认不公开,欢迎创建有意思的"公开谱单")

创建取消

推荐语(选填)

X

请先登录chord4


忘记密码