歌手头像-程璧

我都跟你走

1 2 3 4 5
x

音乐人: 程璧

供谱者:crony
我都跟你走
歌手:程璧
編配者:諾一辰
--------------------------------------
原調: 1=D  選調: 1=C  Capo=2
  
start_of_tab
|-0------------------|--------------|
|---3-3--0-0----------------3-3-0---|
|------------0-2-0--0---0-0---------|
|-----------------------------------|

|-0------------------|--------------|
|---3-3-0-0-----------0-0-----0-----|
|------------0-2-0-0------0-2---0---|
|-----------------------------------|
end_of_tab


[C]你有很多的不安
[F]也曾覺得很孤[G7]單
[C]日子這樣的過去
[F]你不知要去哪[G]裏

[F]我懂 [G7]我也曾
[F]像你這[G7]樣啊
[F]也許 [G7]我現在
[F]想要告[G]訴你


start_of_chorus
[C]不管多麼遙遠[Am]得距離
[F]我都跟你[C]走
[C]不管多麼遙遠[Am]的回憶
[F]我們[G7]都不回[C]頭

[C]世上有很多的[Am]不快樂
就[F]讓我牽你的[C]手
[C]也許你有很多[Am]的疑惑
就[F]請你[G7]跟我[C]走
start_of_chorus
[C]不管多麼遙遠[Am]得距離
[F]我都跟你[C]走
[C]不管多麼遙遠[Am]的回憶
[F]我們[G7]都不回[C]頭

[C]世上有很多的[Am]不快樂
就[F]讓我牽你的[C]手
[C]也許你有很多[Am]的疑惑
就[F]請你[G7]跟我[C]走

就[F]請你[G7]跟我[C]走
end_of_chorus

      

添加到谱单
X

添加到谱单

《 我都跟你走 -- 程璧 》加入
◎ 选择已有谱单 创建新的

公开 (默认不公开,欢迎创建有意思的"公开谱单")

创建取消

推荐语(选填)

X

请先登录chord4


忘记密码