歌手头像-巫娟茹

雲上太陽

1 2 3 4 5
x

音乐人: 巫娟茹

供谱者:crony
雲上太陽
歌手:巫娟茹
編配者:一辰
--------------------------------------
原調: 1=D  選調: 1=C  
start_of_tab
|------0--|--------|----3-2---3-2-0----------------------------------|
|0-3-3---3-0------0-0-----------
|------------2-0-2---2-0--------------------------3--
|---------------------------------------------------------

start_of_tab
|-------0--|-----------3-2-0|0----------------|
|0-3-3---3-|0------------------3---0----

|------------------2-0------------0---2-0-
|-------
end_of_tab


[C]無論是住[G]在,[Am]美麗的高[C]山
[F]或是躺臥[C]在,[F]陰暗的幽[G]谷
[C]當你擡起[G]頭,[Am]你將會發[C]現
[F]主已爲你[G]我而預[C]備
雲上[C]太 [G]陽,它總[Am]不改[C]變
雖然[F]小雨[G]撒在你臉[C]上
雲上[C]太 [G]陽,它總[Am]不改[F]變
哈-[G7]--它[Em7]不改 [C]變
[C]無論是住[G]在,[Am]美麗的高[C]山
[F]或是躺臥[C]在,[F]陰暗的幽[G]谷
[C]當你擡起[G]頭,[Am]你將會發[C]現
[F]主已爲你[G]我而預[C]備
start_of_chorus
[C]雲上太[G]陽,[Am]它總不改[C]變
雖然[F]小雨[G]撒在你臉[C]上
雲上[C]太 [G]陽,它總[Am]不改[F]變
哈-[Em7]--它[C]不 [G]改 [C]變
雲上[C]太 [G]陽,它總[Am]不改[C]變
雖然[F]小雨[G]撒在你臉[C]上
雲上[C]太 [G]陽,它總[Am]不改[F]變
哈-[G7]--它[Em7]不改 [C]變
[F]主已爲你[G7]我而預[C]備
end_of_chorus

      

添加到谱单
X

添加到谱单

《 雲上太陽 -- 巫娟茹 》加入
◎ 选择已有谱单 创建新的

公开 (默认不公开,欢迎创建有意思的"公开谱单")

创建取消

推荐语(选填)

X

请先登录chord4


忘记密码