歌手头像-Kolor

圍城

1 2 3 4 5
x

音乐人: Kolor

供谱者:OdriverAze
D              A

|---------------------5--2--|---------------------2--2-3-2--|
|---3-----3-----3-----------|---2-----2-----2---------------|
|---2--2-----2-----2--------|---2--2-----2-----2------------|
|---0-----------------------|---0---------------------------|
|---0-----------------------|-------------------------------|
|---------------------------|-------------------------------|

D              A
|---------------------5--2--|---------------------2--2-3-2--|
|---3-----3-----3-----------|---2-----2-----2---------------|
|---2--2-----2-----2--------|---2--2-----2-----2------------|
|---0-----------------------|---0---------------------------|
|---0-----------------------|-------------------------------|
|---------------------------|-------------------------------|

D        A        Bm      A
 舒適的溫室 那是誰的家  如幻覺的浮華 延續的都市神話

  G   A    #Fm Bm
真與假 住進山頂寫意喝啖茶

 G       A
把憶記拆下了 換來煙花

D        A        Bm      A
 擠逼的街裏 送着誰的花  如逝去的年華 期待的都似童話

  G   A    #Fm Bm
風雨打 若有天梯只想繼續爬

 G       A
請給我再畫個 未來的家

  Bm   #F7   G     D
最後誰疲倦的走  新屋裏多一隻狗

  Bm   #Fm   G     #F7
看着圍城內的磚厚 歡欣裏合奏 圍成就拍手

G      A
 過去了你 那一雙手

 #Fm    Bm    G    A   #F7
還有每晚每天的奮鬥 汗血盛載這風光的背後

G      A
 老去了你卻瑟縮顫抖

 #Fm    Bm    G    A     Bm
曾一直希望的得到沒有 但我共你可一起喝悶酒

間奏

D              A

|---------------------5--2--|---------------------2--2-3-2--|
|---3-----3-----3-----------|---2-----2-----2---------------|
|---2--2-----2-----2--------|---2--2-----2-----2------------|
|---0-----------------------|---0---------------------------|
|---0-----------------------|-------------------------------|
|---------------------------|-------------------------------|

D        A        Bm      A
 當青春不再 你爲何喧譁  時尚裏的榮華 文物都可變泥沙

  G   A    #Fm Bm
相信嗎 重建單位都可見落霞

 G       A
海鷗已告別了 換成烏鴉

  Bm   #F7   G     D
最後誰疲倦的走  新屋裏多一隻狗

  Bm   #Fm   G     #F7
看着圍城內的磚厚 歡欣裏合奏 圍成就拍手

G      A
 過去了你 那一雙手

 #Fm    Bm    G    A   #F7
還有每晚每天的奮鬥 汗血盛載這風光的背後

G      A
 老去了你卻瑟縮顫抖

 #Fm    Bm    G    A     Bm
曾一直希望的得到沒有 但我共你可一起喝悶酒


G      A
 過去了你 那一雙手

 #Fm    Bm    G    A   #F7
還有每晚每天的奮鬥 汗血盛載這風光的背後

G      A
 老去了你卻瑟縮顫抖

 #Fm    Bm    G    A     Bm
曾一直希望的得到沒有 但我共你可一起喝悶酒

G      A
 過去了你 那一雙手

 #Fm    Bm    G    A   #F7
還有每晚每天的奮鬥 汗血盛載這風光的背後

G      A
 老去了你卻瑟縮顫抖

 #Fm    Bm    G    A     Bm
曾一直希望的得到沒有 但我共你可一起喝悶酒
添加到谱单
X

添加到谱单

《 圍城 -- Kolor 》加入
◎ 选择已有谱单 创建新的

公开 (默认不公开,欢迎创建有意思的"公开谱单")

创建取消

推荐语(选填)

X

请先登录chord4


忘记密码