歌手头像-林子祥

數字人生

1 2 3 4 5
x

音乐人: 林子祥

供谱者:1030362419
選調: 1=C  Capo=2
  
前奏↓
|-3----0-1-3----5-1-3-5-7-8-8--|
|--1-3------1-1--------------1-|
|------------------------------|
|------------------------------|

|-1-3-1-0---0-1-0------0-------|
|---------3------3-1-3--3-1-0-1|
|------------------------------|
|------------------------------|
3 0624700 
3 0624770 
5 34202 13942 
4314 0624 
3 0624700 
3 0624770 
5 34202 13942 
4314 0624 
-------------------------------
C     G   Am     G
填滿一生 全是數字
F     C   Dm7    G 
誰會真正知是何用意
C     G   Am    G 
煩惱一生 全爲數字 
F     C   Dm7    G 
圓滿的掌握問誰可以
C     G        Am    G 
明明刨正23 爲何彈出41 
F         C   Dm7        G       
誰人能夠預知 4點34價位暴升變
C     G     Am    G 
左1004 憑號碼來認識 
F          C        Dm7        G 
你的IQ 你的身家 你的體魄 你的一切 
C     G     Am    G 
人與數字有許多怪事 
F     C       Dm7     G 
看看計數機裏幽禁幾多人質 
C     G     Am    G 
0434 0434 0232 0232 
F     C       Dm7     G 
0646 0646 0878 0878 
C     G     Am    G 
0515 0515 0242 0242 
F     C       Dm7     G 
0696 0696 0272 0272
添加到谱单
X

添加到谱单

《 數字人生 -- 林子祥 》加入
◎ 选择已有谱单 创建新的

公开 (默认不公开,欢迎创建有意思的"公开谱单")

创建取消

推荐语(选填)

X

请先登录chord4


忘记密码