歌手头像-周杰倫

安靜

1 2 3 4 5
x

音乐人: 周杰倫

供谱者:reecho
----------------------------------------------------------------
歌曲名: 
歌手/樂隊:周杰倫
編配者(轉載來源):網絡
----------------------------------------------------------------

   Intro:

   E||--------------------------|--------------------------|
   B||--3-----3--4----3-----1-3-|--3--------4----3-------3-|
   G||--3--------3-------3------|--------3--3-------3--5---|
   D||-----3--------------------|-----3-----3--------------|
   A||--1-----------------------|--6--------6--------------|
   E||--------------------------|--------------------------|

   --------------------------|---------------------------|
   --3--------4----3---------|--1-----------1----------1-|
   --------3--3-------3--5-5-|--------3-----2-----2--3---|
   --5--3-----5--------------|-----3-----3-----3---------|
   --------------------------|---------------------------|
   --3--------3--------------|--1-----------1------------|

   --------------------------|--------------------------|
   --3-----3--4----3-----1-3-|--3--------4----3-------3-|
   --3--------3-------3------|--------3--3-------3--5---|
   -----3--------------------|-----3-----3--------------|
   --1-----------------------|--6--------6--------------|
   --------------------------|--------------------------|

   --------------------------|--------------------------||
   --3--------4----3---------|--1-----------1-----------||
   --------3--3-------3--5-5-|--------3-----2-----2--3--||
   --5--3-----5--------------|--3--3-----3-----3--------||
   --------------------------|--------------------------||
   --3--------3--------------|--1-----------1-----------||


   Bb    Gm
   只剩下鋼琴陪我談了一天
       D#            Cm    F
   睡著的大提琴 安靜的舊舊的
   Bb             Gm
   我想你已表現的非常明白
       D#
   我懂我也知道 你沒有捨不得

   Cm             F
   你說你也會難過我不相信
   Dm             Gm
   牽著你陪著我 也只是曾經
   Cm              Dm
   希望他是真的比我還要愛你
   D#            F
   我纔會逼自己離開

   Bb               Dm
   你要我說多難堪 我根本不想分開
   Gm               F
   爲什麼還要我用微笑來帶過
   D#             Dm  Gm
   我沒有這種天份 包容你也接受他
   Cm              F  F7
   不用擔心的太多 我會一直好好過
   Bb              Dm
   你已經遠遠離開 我也會慢慢走開
   Gm              F
   爲什麼我連分開都遷就著你
   D#            Dm Gm
   我真的沒有天份 安靜的沒這麼快
   Cm              F
   我會學著放棄你 是因爲我太愛你


---------------------------------------------------------
使用頁面右邊升降調工具,配合變調夾選擇合適的Key及和絃
例如:降半調+CAPO1=原調,使用A調和絃
     降半調=Key變爲A調,使用A調和絃

bB
╓—●—┬———┬———┬———┐ 
╟—●—┼———┼—●—┼———┤ 
╟—●—┼———┼—●—┼———┤ 
╟—●—┼———┼—●—┼———┤ 
╟—●—┼———┼———┼———┤ 
╙—●—┴———┴———┴———┘

Gm 
╓—3—┬———┬———┬———┐ 
╟—●—┼———┼———┼———┤ 
╟—●—┼———┼———┼———┤ 
╟—●—┼———┼—●—┼———┤ 
╟—●—┼———┼—●—┼———┤ 
╙—●—┴———┴———┴———┘ 
D#
╓———┬———┬—●—┬———┐ 
╟———┼———┼———┼—●—┤ 
╟———┼———┼—●—┼———┤ 
╟—●—┼———┼———┼———┤ 
╟—x—┼———┼———┼———┤ 
╙—x—┴———┴———┴———┘


添加到谱单
X

添加到谱单

《 安靜 -- 周杰倫 》加入
◎ 选择已有谱单 创建新的

公开 (默认不公开,欢迎创建有意思的"公开谱单")

创建取消

推荐语(选填)

X

请先登录chord4


忘记密码