歌手头像-周國賢

1 2 3 4 5
x

音乐人: 周國賢

供谱者:postman
周國賢 - 光

 

  作曲:周國賢   作詞:李倩菱   編曲:周國賢

  Key:E   4/4   Tempo=134

________________________________________

                              

E||------------------------|-------------------------|

B||--9-------9----7-----7--|--10-------10----9-------|

G||-------9--9-------9-----|--------9--9--------9----|

D||------------------------|-------------------------|

A||------------------------|-------------------------|

E||------------------------|-------------------------|

 

------------------------------|--------------------------|

--12--------12----10------10--|--13--------13----9-------|

--13--------13--------11------|--------13--13-------9----|

--------14--------------------|--------------------------|

------------------------------|--------------------------|

------------------------------|--------------------------|

 

 E   B   A    B

 Hoo... Hoo...

 

E       B   A   E       B   A

 地獄會一夜沉澱 白日如萬軍壯烈

E       B   A   E       B   A

 就讓我收拾殘局 就像雷電般轟動

    C           D

 曙光漸浮現 睜開眼看面前

    G           A

 彷彿被迷住 呼吸氧氣亦瘋癲

 C            C

 手在尋覓 捉不住日全蝕

 B                 C#m

 耗盡力量來順應天氣

 

      A       B       E   B  C#m

 讓白日點燃起來 照遍凡塵叫喚你

      A       B         E   B  C#m

 重疊上銀色希望 讓身體與情緒釋放

      A       B       E   B  C#m

 大地像閃著光芒 讓我可重新搜索

      A       B               E

 隨著那顏色氣味 帶我沿途遇上你

 

 E   B   A    B

 Hoo... Hoo...
添加到谱单
X

添加到谱单

《 光 -- 周國賢 》加入
◎ 选择已有谱单 创建新的

公开 (默认不公开,欢迎创建有意思的"公开谱单")

创建取消

推荐语(选填)

X

请先登录chord4


忘记密码