歌手头像-容祖兒

Now and Forever

1 2 3 4 5
x

音乐人: 容祖兒

供谱者:reecho
[INTRO]

 G
E|-------3-----|-------------|------3--------|
B|--0----3-----|--0h1-1/3--1-|----------1p0--|
G|----------0--|-------------|----0--------0-|
D|----0--------|--0h2-2/4--2-|--2-----2------|
A|-------------|-------------|---------------|
E|--3----------|-------------|---------------|

G
|-------3-----|-------------|------3--------|
|--0----3-----|--0h1-1/3--1-|-----------1---|
|----------0--|-------------|----0--------0-|
|----0--------|--0h2-2/4--2-|--2-----2------|
|-------------|-------------|---------------|
|--3----------|-------------|---------------|

[VERSE]

G     Em
|-------3-----|-------0-----|---------0------0-|
|--0----3-----|-------3-----|---------0----0---|
|-------------|----2-----2--|------------0-----|
|----0--------|-------------|------2-----------|
|-------------|-------------|----2-------------|
|--3-------3--|--2----------|--0---------------|
           [Whenever     I-m   Weary,     From The


Am
|-------------|-------------|---------------|
|------1------|--0~~~~~~~x--|--------3------|
|------2------|--0~~~~~~~x--|------2---2----|
|----2-----2--|-------------|-----0-0-0-0---|
|--0----------|-------------|---------------|
|-------------|--3~~~~~~~x--|--2------------|
   Battles That  Rage In My    Head ....]

G                           Em
|-------3-----|-------0-----|---------0------0-|
|--0----3-----|-------3-----|---------0----0---|
|-------------|----2-----2--|------------0-----|
|----0--------|-------------|------2-----------|
|-------------|-------------|----2-------------|
|--3-------3--|--2----------|--0---------------|
           [You Make Sense Of  Maddness,  When my

Am
|-------------|-------------|---------------|
|------1------|--0~~~~~~~x--|--------3------|
|------2------|--0~~~~~~~x--|------2---2----|
|----2-----2--|-------------|-----0-0-0-0---|
|--0----------|-------------|---------------|
|-------------|--3~~~~~~~x--|--2------------|
    Sanity      Hangs by a     Thread ......]


[CHORUS]

C               B7               Em
|----0---0-----|-----2---2------|----0--|----0--|----------|
|----1---1-----|-----0---0------|----0--|----3--|--------5-|
|---0----------|----2-----------|-----0-|---0---|------4---|
|--2----2------|---1----1-------|---2---|--0---0|----5-----|
|-3----3----0--|--2----2----2---|-------|-------|--4-------|
|--------------|----------------|--0----|-------|----------|
     [I Lose my way but still you, seem to understand ....]

C                    D
|------------0-------|------2----3-|
|------------1--1p0--|------3----3-|
|-----------0--0---0-|----2---2----|
|----------2---------|--0----------|
|---------3----------|-------------|
|--------------------|-------------|
[Now & Forever.......   I Will Be Your Man...]

G
|-------3-----|-------------|------3--------|
|--0----3-----|--0h1-1/3--1-|----------1p0--|
|----------0--|-------------|----0--------0-|
|----0--------|--0h2-2/4--2-|--2-----2------|
|-------------|-------------|---------------|
|--3----------|-------------|---------------|


[VERSE 2]

G     Em
|-------3-----|-------0-----|---------0------0-|
|--0----3-----|-------3-----|---------0----0---|
|-------------|----2-----2--|------------0-----|
|----0--------|-------------|------2-----------|
|-------------|-------------|----2-------------|
|--3-------3--|--2----------|--0---------------|
           [Sometimes  I  Just   hold   you,

Am
|-------------|-------------|---------------|
|------1------|--0~~~~~~~x--|--------3------|
|------2------|--0~~~~~~~x--|------2---2----|
|----2-----2--|-------------|-----0-0-0-0---|
|--0----------|-------------|---------------|
|-------------|--3~~~~~~~x--|--2------------|
   Too caught up in me to      see......]

G                           Em
|-------3-----|-------0-----|---------0------0-|
|--0----3-----|-------3-----|---------0----0---|
|-------------|----2-----2--|------------0-----|
|----0--------|-------------|------2-----------|
|-------------|-------------|----2-------------|
|--3-------3--|--2----------|--0---------------|
           [I-m holding a      Fortune,   that

Am
|-------------|-------------|---------------|
|------1------|--0~~~~~~~x--|--------3------|
|------2------|--0~~~~~~~x--|------2---2----|
|----2-----2--|-------------|-----0-0-0-0---|
|--0----------|-------------|---------------|
|-------------|--3~~~~~~~x--|--2------------|
    heaven has given to        me...........]

[CHORUS]

C               B7               Em
|----0---0-----|-----2---2------|----0--|----0--|----------|
|----1---1-----|-----0---0------|----0--|----3--|--------5-|
|---0----------|----2-----------|-----0-|---0---|------4---|
|--2----2------|---1----1-------|---2---|--0---0|----5-----|
|-3----3----0--|--2----2----2---|-------|-------|--4-------|
|--------------|----------------|--0----|-------|----------|
       [I-ll try to show each and everyway i can ........]

C                    D
|------------0-------|------2----3-|
|------------1--1p0--|------3----3-|
|-----------0--0---0-|----2---2----|
|----------2---------|--0----------|
|---------3----------|-------------|
|--------------------|-------------|
[Now & Forever .........  I Will Be Your Man]

G
|-------3-----|-------------|------3|
|--0----3-----|--0h1-1/3--1-|-------|
|----------0--|-------------|----0--|
|----0--------|--0h2-2/4--2-|--2----|
|-------------|-------------|-------|
|--3----------|-------------|-------|


[BRIDGE]

        Em       C        G        D
|-----2--|-----0--|-----0--|-----3--|-------2---|
|-----0--|-----0--|-----1--|-----3--|-------3---|
|---2----|-------0|--------|-------3|---0h2---2-|
|-------1|---2----|---2---0|---0----|-0---------|
|-2------|--------|-3------|--------|-----------|
|--------|-0------|--------|-3------|-----------|
 [Now I can rest my worries and always be sure]

Em       C        G
|-----0--|-----0--|-----3--|-----0---|
|-----0--|-----1--|-----3--|-----1---|
|-------0|--------|-------3|---2---2-|
|---2----|---2---0|---0----|---------|
|--------|-3------|--------|---------|
|-0------|--------|-3------|-2-------|
 [That I won-t be alone anymore .....]

Em       C        G
|-----0--|-----0--|-----3--|-----0---|
|-----0--|-----1--|-----3--|-----1---|
|-------0|--------|-------3|---2---2-|
|---2----|---2---0|---0----|---------|
|--------|-3------|--------|---------|
|-0------|--------|-3------|-2-------|
 [If I-d only .. known you were there

             D
|-------0~~x-|-------2---3-|--------|
|-------0~~x-|-------3---3-|--------|
|------------|---0h2---2---|--------|
|-----2------|-0-----------|--------|
|---2--------|-------------|-0------|
|-0----------|-------------|----3~~x|
 all the time ...All the time ......]


[SOLO]

|---------------------|-------------------------------|
|---------------------|-------------------------------|
|-0h2p0---0-2-2h4-4~~x|-4h5-2-4-5~~x-5/7-5-4~x-0--2~~x|
|-------4-------------|-------------------------------|
|---------------------|-------------------------------|
|---------------------|-------------------------------|

|-------------3--2~x|2/3/2-0-7~x|
|--------0h3-0-0----|-----------|
|-----0h2-------2---|-----------|
|0h2h4--------------|-----------|
|-------------------|-----------|
|-------------------|-----------|

|-0-7/8-0-7-----7----------------------|
|----------10-10-8~x---8-8~x-8/10-10~~x|
|-------------------7-7-----7----------|
|--------------------------------------|
|--------------------------------------|
|--------------------------------------|

|--3p2-0----------0~~x-|
|-------3p1-0-0h1-1~~x-|
|------------2----0~~x-|
|----------------------|
|----------------------|
|----------------------|

C                     Em
|---0---|-----2---2---|----0--|----0--|-----------|
|---1---|-----0---0---|----0--|----3--|--------5--|
|--0----|----2--------|-----0-|---0---|------4----|
|-2-----|---1----1----|---2---|--0---0|----5------|
|-----0-|--2----2---2-|-------|-------|--4--------|
|-------|-------------|--0----|-------|-----------|
[Until The Day The Ocean Doesn-t Touch The Sand]

C                    D
|------------0-------|------2----3-|
|------------1--1p0--|------3----3-|
|-----------0--0---0-|----2---2----|
|----------2---------|--0----------|
|---------3----------|-------------|
|--------------------|-------------|
[Now & Forever .........  I Will Be Your Man]

G
|-------3-----|-------------|
|--0----3-----|--0h1-1/3--1-|
|----------0--|-------------|
|----0--------|--0h2-2/4--2-|
|-------------|-------------|
|--3----------|-------------|


C                    D
|------------0-------|------2----3-|
|------------1---1---|------3----3-|
|-----------0--0---0-|----2---2----|
|----------2---------|--0----------|
|---------3----------|-------------|
|--------------------|-------------|
[Now & Forever .........  I Will Be Your Man]

G
|-------3-----|-------------|------3-----3~x|--------------|
|--0----3-----|--0h1-1/3--1-|----------1----|--------------|
|----------0--|-------------|----0---0------| STRUM G ONCE |
|----0--------|--0h2-2/4--2-|--2------------|   AND  HOLD  |
|-------------|-------------|---------------|--------------|
|--3----------|-------------|---------------|--------------|
添加到谱单
X

添加到谱单

《 Now and Forever -- 容祖兒 》加入
◎ 选择已有谱单 创建新的

公开 (默认不公开,欢迎创建有意思的"公开谱单")

创建取消

推荐语(选填)

X

请先登录chord4


忘记密码