歌手头像-萬曉利

1 2 3 4 5
x

音乐人: 萬曉利

供谱者:reecho
-------------------------------------------------------------------------------
歌曲名:水
歌手/樂隊:萬曉利
編配者(轉載來源):三兒的問題
-------------------------------------------------------------------------------

這是萬總的一首長達八分多鐘的歌,實際上並不適合普通的彈唱及表演。
但是可以從中學到很多。
吉他降全音調絃:D G C F A D 
歌曲順序:前奏-1-2-副歌-A-間奏I---3-4-副歌-B-間奏II---5-6-副歌-C-尾聲
注意把握演奏的反覆、變化與力度。
前奏:
 ------------------------------------|------------------------------------|
 ------------------------------------|------------------------------------|
 -0--------0--------0--------0-------|-0--------0--------0--------0-------|
 -----7--------7--------7--------7---|-----8--------8--------8--------8---|
 ---6---6----6---6----6---6----6---6-|---5---5----5---5----5---5----5---5-|
 ------------------------------------|------------------------------------|

 ------------------------------------|------------------------------------|
 ------------------------------------|------------------------------------|
 -0--------0--------0--------0-------|-0--------0--------0----------------|
 -----7--------7--------7--------7---|-----8--------8---------------------|
 ---6---6----6---6----6---6----6---6-|---5---5----5---5-------------------|
 ------------------------------------|------------------------------------|
1—6段:
 ------------------------------------|------------------------------------|
 ------------------------------------|------------------------------------|
 -0--------0--------0--------0-------|-0--------0--------0--------0-------|
 -----7--------7--------7--------7---|-----8--------8--------8--------8---|
 ---6---6----6---6----6---6----6---6-|---5---5----5---5----5---5----5---5-|
 ------------------------------------|------------------------------------|
1.像      一       個                英  雄
2.你      的       一個              朋  友
3.你 用   智  慧   和                力  量
4.你      忘       記                了  她
5.你      逃       回                村  莊
6.可人們  還  是   去  了            懸崖邊
 ------------------------------------|------------------------------------|
 ------------------------------------|------------------------------------|
 -----0--------0--------0--------0---|-0--------0--------0--------0-------|
 -5--------5--------5--------5-------|-----7--------7--------7--------7---|
 ---3---3----3---3----3---3----3---3-|---5---5----5---5----5---5----5---5-|
 ------------------------------------|------------------------------------|
  背      後        的                歡呼聲
  另      一        個                英  雄
  把  身  體   掛   在                牆  上
就再 也  想   不   起                什  麼
  正  巧  人   們   把  你       忘得 幹  淨
  還  在  盼   望   兩  個   英  雄的 消  息
 ------------------------------------|------------------------------------|
 ------------------------------------|------------------------------------|
 -0--------0--------0--------0-------|-0--------0--------0--------0-------|
 -----7--------7--------7--------7---|-----8--------8--------8--------8---|
 ---6---6----6---6----6---6----6---6-|---5---5----5---5----5---5----5---5-|
 ------------------------------------|------------------------------------|
  他       們  要   你                 翻       過  那堵 牆
  已       在  牆   外               和敵       人  廝   殺
  上       升  上   升                 上       升  上   升
  金       黃  色  的光                布       滿  天   空
  和       親  人   們                 一       起  勞   作
  你       怎  麼   也                 夾       雜  在人 羣
 ------------------------------------|------------------------------------|
 ------------------------------------|------------------------------------|
 -----0--------0--------0--------0---|-0--------0--------0--------0-------| 
 -5--------5--------5--------5-------|-----7--------7--------7--------7---|
 ---3---3----3---3----3---3----3---3-|---5---5----5---5----5---5----5---5-|
 ------------------------------------|------------------------------------|
去和      你   的   朋  友             會  合
  你      的   心   裏           有些  着  急
  幾      乎  感覺  不  到         的  上  升
  你      就   翻   過             了  那堵牆
  你      又   回   到                 童  年
  忘      了   你   剛  從       那裏  回  來
副歌:
 ------------------------------------|------------------------------------|
 ------------------------------------|------------------------------------|
 ------------------------------------|-----0--------0--------0--------0---|
 10--------8--------7-------7--------|-0--------0--------0--------0-------|
 ----10-------10-------10-------10---|--10--10---10--10---10--10---10--10-|
 --10--10---10--10---10--10---10--10-|------------------------------------|
 沒        有       喜                悅(X2)

A、B、C段
 ------------------------------------|------------------------------------|
 ------------------------------------|------------------------------------|
 -0--------0--------0--------0-------|-0--------0--------0--------0-------|
 -----8--------8--------8--------8---|-----7--------7--------7--------7---|
 ---6---6----6---6----6---6----6---6-|---5---5----5---5----5---5----5---5-|
 ------------------------------------|------------------------------------|
A.能 不   能  翻   過          那堵   牆
 他  們   都  不   會  去             懷  疑
 前  年   你  曾   翻  過      九座   山
 你還年   輕  就   沒  和        她   告  別(此處演奏自然停止)
B.沒 有   找  到   你  的        朋   友
 房  間   裏  全   都  是        女   人
 有  個   女  人   問  你    要不要   愛  情
 說你的   朋  友   早  已    不 知    去  向(此處演奏自然停止)
C.她 突   然  出   現  在        你   身  邊
 對  你   輕  輕   地                 笑  着
 你  想   把  她   緊  緊        擁   抱
 她  卻   慢  慢   地  縱身      一   躍

間奏I
 ------------------------------------|------------------------------------|
 ------------------------------------|------------------------------------|
 -0-------0--------0--------0--------|-0-------0--------0--------0--------|
 ----13------13-------13-------13----|----12------12-------12-------12----|
 --12--12--12--12---12--12---12--12--|--12--12--12--12---12--12---12--12--|
 ------------------------------------|------------------------------------|

 ------------------------------------|------------------------------------|
 ------------------------------------|------------------------------------|
 -0-------0--------0--------0--------|-0-------0--------------------------|
 ----10------10-------10-------10----|----12------12-----12(泛音)---------|
 --12--12--12--12---12--12---12--12--|--12--12--12--12--------------------|
 ------------------------------------|------------------------------------|

間奏II,是前奏I的反覆
 ------------------------------------|------------------------------------|
 ------------------------------------|------------------------------------|
 -0-------0--------0--------0--------|-0-------0--------0--------0--------|
 ----13------13-------13-------13----|----12------12-------12-------12----|
 --12--12--12--12---12--12---12--12--|--12--12--12--12---12--12---12--12--|
 ------------------------------------|------------------------------------|

 ------------------------------------|------------------------------------|
 ------------------------------------|------------------------------------|
 -0-------0--------0--------0--------|-0-------0--------0--------0--------|
 ----13------13-------13-------13----|----12------12-------12-------12----|
 --12--12--12--12---12--12---12--12--|--12--12--12--12---12--12---12--12--|
 ------------------------------------|------------------------------------|

 ------------------------------------|------------------------------------|
 ------------------------------------|------------------------------------|
 -0-------0--------0--------0--------|-0-------0--------0--------0--------|
 ----10------10-------10-------10----|----12------12-------12-------12----|
 --12--12--12--12---12--12---12--12--|--12--12--12--12---12--12---12--12--|
 ------------------------------------|------------------------------------|

 ------------------------------------|------------------------------------|
 ------------------------------------|------------------------------------|
 -0-------0--------0--------0--------|-0-------0--------------------------|
 ----10------10-------10-------10----|----12------12-----12(泛音)---------|
 --12--12--12--12---12--12---12--12--|--12--12--12--12--------------------|
 ------------------------------------|------------------------------------|

尾聲
 ------------------------------------|------------------------------------|
 ------------------------------------|------------------------------------|
 ----------0-----------------0-------|----------------------------0-------|
 -----1--------1--------0--------0---|-----0--------0--------0--------0---|
 -3-----------------1----------------|-0--------0----------0--------------|
 ---3---3----3---3----3---3----3---3-|---3---3----3---3--3-----3----3---3-|
  像  夏   天  裏   剛  振   翅  的    紅 翅    膀  的   蝴 蝶
  你  張   着  口   不  能   伸  手    呆 呆    地  望   着
  像  電   影  裏   慢  放的 鏡  頭    永 遠    不  能   定 格
  她  凝   固  着   你  凝   固  着    時 間    卻  凝   不 住
 -------------------------------------------------------------------------|
 -------------------------------------------------------------------------|
 -------------------------------------------------------------------------|
 ------------------5------------------------5-----------------------------|
 --5-------6--------------------5------6----------------------------------|
 -----------------------------------------------------3-------------------|
  天      崩      地   裂      洪    水   滔          天


添加到谱单
X

添加到谱单

《 水 -- 萬曉利 》加入
◎ 选择已有谱单 创建新的

公开 (默认不公开,欢迎创建有意思的"公开谱单")

创建取消

推荐语(选填)

X

请先登录chord4


忘记密码