歌手头像-萬曉利

媽媽

1 2 3 4 5
x

音乐人: 萬曉利

供谱者:reecho
歌曲名:媽媽 
歌手/樂隊:萬曉利
編配者(轉載來源):列農(提供)
------------------------------------------------------------------

詞/曲:萬曉利

扒譜人:老列

前奏:                  擊弦       勾弦
                        ︵         ︵
E-4-----4-2--0-----0-|-0--2-----2-2--0---0-|-0-----0---2-
B-----0----------0---|------3----------3---|-----0-------
G---1----------2-----|--------2------------|---1---------
D--------------------|-0-------------------|-------------
A------------0-------|---------------------|-------------
E-0------------------|---------------------|-0-----------


                        ︵         ︵
E-4-----4-2--0-----0-|-0--2-----2-2--0---0-|-0-----0--------|
B-----0----------0---|------3----------3---|-----0----------|
G---1----------2-----|--------2------------|---1------------|
D--------------------|-0-------------------|----------------|
A------------0-------|---------------------|----------------|
E-0------------------|---------------------|-0--------------|


E        Asus2   Dsus2  E
小時候媽媽經常給我唱一支歌
E           Asus2
我不知道那歌叫什麼
Dsus2         E
卻是我童年的歡樂
Asus2         E
在那個純樸的年代
Asus2     E
那些溫暖的夜
Asus2     B7
我躺在媽媽懷裏
Dsus2   E
靜靜的聽着


E         Asus2
媽媽還曾經對我說
Dsus2    E
你要學好功課
E         Asus2
媽媽給你縫個新書包
Dsus2       E
將來去北京上大學
Asus2       E
我真的來到了北京
Asus2          E
背的不是書包卻是吉他
Asus2     B7
媽媽一定很傷心
Dsus2     E
在那個過年的夜


B7            E
媽媽再給我唱首歌吧
B7            E
就唱你教給我的童謠
A           E
雖然我現在長大了
B7           E
可那支童謠我忘了


B7             E
媽媽再給我唱首歌吧
B7             E
就唱你教給我的童謠
A           E
雖然我寫了一些歌
B7               E
可哪能比得上那支童謠

間奏:(回前奏)


B7            E
媽媽再給我縫個書包
B7              E
讓我背上它去天涯海角
A            E
裝上你慈祥的目光
B7             E
和你永不停歇的心跳


B7            E
媽媽再給我縫個書包
B7              E
讓我背上它去天涯海角
A              E
我肩上的東西太多了
B7              E
我要統統放進我的書包

B7    E   A    E
呃..................
B7    E   A    E
呃..................


和絃圖:

Asus2:

E------
B------
G---2--
D---2--
A------
E------

Dsus2:

E------
B----3-
G--2---
D------
A------
E------
添加到谱单
X

添加到谱单

《 媽媽 -- 萬曉利 》加入
◎ 选择已有谱单 创建新的

公开 (默认不公开,欢迎创建有意思的"公开谱单")

创建取消

推荐语(选填)

X

请先登录chord4


忘记密码