歌手头像-萬曉利

驕傲的小毛驢

1 2 3 4 5
x

音乐人: 萬曉利

供谱者:reecho
歌曲名:驕傲的小毛驢
歌手/樂隊:萬曉利
編配者(轉載來源):三兒的問題
-------------------------------------------------------------------------------

這是一首奇特的歌。
在曉利的第三張專輯裏,很多歌摒棄了傳統的歌曲結構,複雜的伴樂甚至是固定的節拍,
這首歌便是一個例證。
它甚至完全不需要用左手用力按弦,在前半部分,只用右手就可以彈奏了。
注意特殊的調絃方式:D  A  D  #F  A  D  
這首歌的演奏正是與這種開放式調絃有關,
相信聽過英國民謠天才Nick Drake的彈吉他的朋友一定有很深的印象。
不過爲了保護你的琴,不要隨便亂擰,可以用一把別人暫時不用的吉他來玩這樣的歌,
我就是用宿舍裏另一把琴扒的。

第一個反覆,前奏也是這樣的:
--------------------------------------------------------------------------
--------------------------------------------------------------------------
--------------------------------------------------------------------------
--------0---------------0---------------0---------------0-----------------
-----0-------0-------0-------0-------0-------0-------0-------0------------
--0-------0-------0-------0-------0-------0-------0-------0---------------
  不    關心
  就 不 關心
  他 唱 的歌      他 跳 的舞      他 演 的戲      他 編 的劇 
  他 寫 的書 
  一 個 蹩腳      的 演 員 
  哪 裏 會是      好 小 醜 
  小 醜 能讓 人   笑 
  他 只 能讓 人   痛 苦

  不    關心
  就 不 關心
  他 講 的演      他 承 的諾      他 下 的跪      他 獻 的媚 
  他 流 的毒 
  嫌 小 毛驢      走 得 太慢 
  怎 能 是個      好 小 醜 
  小 醜 能讓 人   笑 
  他 只 能讓 人   痛 苦

  拽    下來 
  快 拽 下來 
他佔 着 舞臺 梧   桐 的 舞臺 袋   鼠 的 舞臺 精   靈 的 舞臺 
  星 星 的                        舞 臺 
  他 想 要騾 子                   生 出 馬 
  他 想 要水                      變 成 油 
  他 挖 空心思    地 想 
  真 不 是個      好 小 醜

  要    關心 
  就 只 關心 
  關 心 她和她    關 心 它和它    關 心 偶然      關 心 長久 
  關 心 哀傷                      的 夜 鶯 
  只 關 心北方                    的 北 方 
  不 關 心東方                    和 南 方 
  只 關 心長生    不 老 
  只 關 心兒女    私 情


這是後面的反覆,在第一個反覆的基礎上加入泛音,有一定的難度。括號內的音爲泛音,
與同一拍上的低音一起演奏出來。彈過古典吉他或指彈曲的朋友更容易上手,反正我是彈不好,哈哈。

-(12)----------------------------(12)-------------------------------------
---------(7)------------------------------(7)-----------------------------
-----------------(7)------------------------------(7)---------------------
--------0--------------0-(7)-------------0---------------0-(7)------------
-----0-------0-------0-------0-------0--------0-------0--------0----------
--0-------0-------0-------0-------0--------0-------0--------0-------------
添加到谱单
X

添加到谱单

《 驕傲的小毛驢 -- 萬曉利 》加入
◎ 选择已有谱单 创建新的

公开 (默认不公开,欢迎创建有意思的"公开谱单")

创建取消

推荐语(选填)

X

请先登录chord4


忘记密码