歌手头像-萬曉利

和解吧,姑娘

1 2 3 4 5
x

音乐人: 萬曉利

供谱者:reecho
歌曲名:和解吧,姑娘 
歌手/樂隊:萬曉利 
編配者(轉載來源):三兒的問題
---------------------------------------------------------------------------

和解吧,姑娘    詞曲:萬曉利
(整首歌都是這八個小節的反覆,間奏也是,吉他降全音調絃)
(1—2—A—B—間奏—3—4—C—D—間奏—5)
 #Cm7                                 #Fm
-------0--------0--------0--------0-|-------0--------0--------0--------0-|
---4--------4--------4--------4-----|---2--------2--------2--------2-----|
-----4--------4--------4--------4---|-----2--------2--------2--------2---|
-6--------6--------6--------6-------|-4--------4--------4--------4-------|
------------------------------------|------------------------------------|
------------------------------------|------------------------------------|
         1.長 着    粉 刺    的  姑   娘
         2.發 着    短 信    的  姑   娘
         3.照 着    鏡 子    的  姑   娘
         4.鎖 着    日 記    的  姑   娘
         5.和 解    了 吧     姑      娘
A賭 着                  氣    的     姑   娘
B他 們                  有 的 已     變   老
C愛 着                  小 城 的     姑   娘
D這世界                 荒 唐 也     荒   涼
 E                                    ???
-------0--------0--------0--------0-|-------0--------0--------0--------0-|
---0--------0--------0--------0-----|---0--------0--------0--------0-----|
-----1--------1--------1--------1---|-----1--------1--------1--------1---|
-2--------2--------2--------2-------|-1--------1--------1--------1-------|
------------------------------------|------------------------------------|
------------------------------------|------------------------------------|
          你   把  頭   發  弄得  很  亂
          你   的  手   指  靈活  修  長
          你   已  愛   上  了    虛  榮
          你   把  心   願  許給  明  天
          你   的  心   越  來越  狂  野
也 許                   你  並沒  有   錯                            怪
頭 頂                   生   出   白   發                            像
請 你                   也  愛那  原   野                            那
繁 華                   不  過是  假   象                            去
 #C7                                  E
-------0--------0--------0--------0-|-------0--------0--------0--------0-|
---2--------2--------2--------2-----|---0--------0--------0--------0-----|
-----4--------4--------4--------4---|-----1--------1--------1--------1---|
------------------------------------|------------------------------------|
-4--------4--------4--------4-------|-2--------2--------2--------2-------|
------------------------------------|------------------------------------|
          不再精心                             梳起  辮 子
          疊着紙折                             不彈  吉 他
          他們暗暗                             的羨  慕 你
          他們猜着                             你的  故 事
          他們爲你                             困惑  不 已
     他們把你                     還 當作         孩子
     下午的陽光                      疲憊         遺憾
     裏的莊稼                        山坡         和農舍
     呼吸那裏                     清 晨的         空氣
 Am                                   #Fm
-------0--------0--------0--------0-|--------------0---------------------|
---1--------1--------1--------1-----|-------0--------0----0------0-----0-|
-----2--------2--------2--------2---|---2------2--------2---2------2-----|
------------------------------------|-----4------4------------4------4---|
-0--------0--------0--------0-------|------------------------------------|
------------------------------------|-2----------------------------------|
 
 悄           悄   打  理        起   憂傷
 你           的   夢  想        在   哪呢
 那           個對 自  己   微笑 的   人
 心           中   便  也        悲   喜
 別           再   像            個   謎(漸慢,結尾處四弦上--4~6--)
卻忘記了                       時間   跑      得       飛    快
那秋後                            的  煩亂
平凡的                          舒展  的          景   象
那兒纔是                              家    園


添加到谱单
X

添加到谱单

《 和解吧,姑娘 -- 萬曉利 》加入
◎ 选择已有谱单 创建新的

公开 (默认不公开,欢迎创建有意思的"公开谱单")

创建取消

推荐语(选填)

X

请先登录chord4


忘记密码