歌手头像-任賢齊

好聚好散

1 2 3 4 5
x

音乐人: 任賢齊

供谱者:finshman

   Capo: 1   play: Em

   intro:
   |---0-2-3-2-----|---0-2-3-2---|---0-2-3-2--|-------------------|-12-------|
   |---0-4-5-4-4/5-|---0-4-5-4-5-|---0-4-5-4-5|-5-5-5/10-10-10-12-|----12----|
   |-----------4---|-----------4-|-----------4|-4-4-4/9--9--9--12-|-------12-|
   |---------------|-------------|------------|-------------------|----------|
   |---------------|-------------|------------|-------------------|----------|
   |-0-------------|-0-----------|-0----------|-------------------|----------|

   |-----------------------------------|-----------------------0|
   |-------0-------0-------0-------0---|-----0-----0-----------0|
   |-----0---0---0---0---0---0---0---0-|---0-----0-----0-------0|
   |-----------------------------------|---------------------2--|
   |-2/7-------6-------5-------4-------|-3-----2-----0-----2----|
   |-----------------------------------|-----------------0------|

   |----------------------------------|-------------------[12]-----------|
   |-------0-------0------0-------0---|-----0-----0------------[12]------|
   |-----0---0---0---0--0---0---0---0-|---0-----0-----0-------------[12]-|
   |----------------------------------|----------------------------------|
   |-2/7-------6-------5------4-------|-3-----2-----0--------------------|
   |----------------------------------|-----------------0----------------|

   Em                     Am
   黑悽悽的車窗外 路燈站立的那麼蒼白
   D                     Em
   晚歸的人無法忘懷 夜的召喚
   Em                         Am
   黑悽悽的車窗裏面 我猜想至少你說聲Goodbye
     D                     Em
   我暗自埋怨 無法忘懷 你的離開
   Am       D          Em         Bm
   顛坡的車上 漸行漸遠 是昨天的色彩
   Am               D         Em
   我只要再多想你一點 眼淚就要不聽使喚
   Am      D          Em         Bm
   凝結的夜霧 會不會浸溼了你的衣襬
   Am                               D
   我心掛著你 卻不懂你說的話 好聚好散
   C         D G       Em
   你說 愛傷懷 愛太無奈
   Am             D           G
   沒有愛 我又怎麼會 在這裏徘徊
   C         D G       Em
   你說 愛傷懷 愛太無奈
   Am              D          Em
   沒有愛 我又怎麼會 在這裏等待
   C               D
   我等你 等你 等你 
   G                E
   等你 回來 回來 回來
   Am               D            Em
   我還是不懂你說的話 好聚怎麼好散
添加到谱单
X

添加到谱单

《 好聚好散 -- 任賢齊 》加入
◎ 选择已有谱单 创建新的

公开 (默认不公开,欢迎创建有意思的"公开谱单")

创建取消

推荐语(选填)

X

请先登录chord4


忘记密码