歌手头像-任賢齊

燭光 (溫暖)

1 2 3 4 5
x

音乐人: 任賢齊

供谱者:finshman

   intro
   ----------------------------------------------------------
   ----------------------5-5---------------------------------
   ----4-7-7-4---------4-----4--------------4----------------
   5/7---------7/5-5/7---------7/5------7-5----7-5/7---------
   --------------------------------5/7-----------------------
   ----------------------------------------------------------

   指法
   G,Em,C           D
   -x--x---         -x^-------x^x^xI-     ^掃 ^向下
   ---x-x--         -xI-1-0---xIxIxI-     I   v向上
   --x-----         -xI-----2-xIxIxv-     I   x按著chord勾
   --------         -xI--------------     I
   --------         -xI--------------     I
   -x------         -xI--------------     I

   節奏
   G           Em           C        D Dsus4 D     Dsus4
   AvAv-v^v   A^vAv-^v^v^v  X^v^X^v^ A A     A-    -3---(下三線)
   --------   -==-==--====   _3_ _3_   -3---
               -2---
   A掃全部線          1一拍  1半拍  1四分一拍  111三連拍
   ^向下掃下四條             -      =          -3-
   v向上掃下四條
   -唔使掃
   X掃上四條

   start

          G          Em
   你現在好嗎 今天快樂嗎
   曾相約那天 陪你在這邊
        C              D
   我從遠方送你的花 你收到了嗎
   躺著凝望蔚藍的天 而講到從前
        Em   Bm  Em
   分手以後的雨季 斷斷續續下不停
   從前今日和明天 渴望與你也相見
        C    D
   沒有你的日子 真的不容易
   祈求彼此相連 一起走向前
        G              Em
   躲不開回憶 最難忘記你
   而你的缺點 仍視作優點
      C     D
   再說什麼也無法壓抑 洶涌的情緒
   全心喜歡卻不會討厭 不需再遮掩
        Em   Bm  Em
   我已學會珍惜 再給我一次勇氣
   隨時在你身邊 這世界怎麼改變
        C    D
   好想告訴你 我的愛一直留在你那裏
   就算幾多年 還記得從來不會說謊言
   G   Em       Bm
   三百六十五支燭光 亮在我心上
   在你身邊感到溫暖 絕不欺或騙
       C   D
   每一天一支燭光照得我的心慌
   望你多一面始終不倦只有留戀
         Em          Bm
   我只想擁有凡人的慾望
   我希望你是每晚或每天
          G       Em       C D
   唯有你是我的陽光 唯有你能讓我的天空晴朗
   仍然陶醉躺於我肩 傾訴內心歡喜與悲傷發展
   G   Em       Bm
   三百六十五支燭光 亮在我心上
   在你身邊感到溫暖 絕不欺或騙
       C   D
   每一天一支燭光都是相同的願望
   望你多一面始終不倦感覺像初戀
         Em          Bm
   你的愛是我期待的天堂
   我希望你是每晚或每天
          G       Em     C     D     G
   祝你天天年年快樂 也祝福我們地久天長
   時時你也覺得溫暖 從今天跟你一起不變
   Repeat once
   C     D         G
   也祝福我們地久天長
   從今天跟你一起不變
添加到谱单
X

添加到谱单

《 燭光 (溫暖) -- 任賢齊 》加入
◎ 选择已有谱单 创建新的

公开 (默认不公开,欢迎创建有意思的"公开谱单")

创建取消

推荐语(选填)

X

请先登录chord4


忘记密码