歌手头像-齊秦

想念

1 2 3 4 5
x

音乐人: 齊秦

供谱者:finshman


   SOLO
   |-3/5-7-8^-8^-8^-8^-8/10-7--|          / = SLIDE
   |--------------------------5|          ^ = BEND
   |---------------------------| 	  H = HARMONIC
   |---------------------------|
   |---------------------------|
   |---------------------------|

   |---5-7^-7^-7^-7^--8-7-5---------|
   |-8------------------------------|
   |------------------------5-5/9---|
   |--------------------------------|
   |--------------------------------|
   |--------------------------------|

   |-8-8/10-7-5--------------5-4--5----|
   |------------8-6-5----6-5-----5-----|
   |-----------------------------------|
   |---------------------------------7H|
   |-----------------------------------|
   |-----------------------------------|

       Am          Am     G           G
   我在異鄉的夜半醒來 看完全陌生的窗外
       E7           E7        Am          Am
   沒有一盞熟悉的簦可以打開 原來習慣是那麼難改

   我在異鄉的街道徘徊 聽完全陌生的對白
                                Am      Em  Am
   當初那麼多的勇氣讓我離開 我卻連時差都調不回來
       Dm        Dm       Am         AM
   我的夜晚是你的白天 當我思念oh 你正入眠
       Dm        E        Am          Am
   帶的手錶是你的時間 回想你疼愛我的臉
       Dm        Dm        Am        Am
   我的夜晚是你的白天  當你醒時我夢裏相見
       Dm        E        Am      Em  Am
   只爲了和你再見一面 我會不分晝夜的想念

添加到谱单
X

添加到谱单

《 想念 -- 齊秦 》加入
◎ 选择已有谱单 创建新的

公开 (默认不公开,欢迎创建有意思的"公开谱单")

创建取消

推荐语(选填)

X

请先登录chord4


忘记密码