歌手头像-周華健

1 2 3 4 5
x

音乐人: 周華健

供谱者:finshman



[Starting Key = F]  Capo:0

Riff 1:
E|--------1---|--------1---|
B|------1-----|------0-----|
G|----0-------|----2-------|
D|--3---------|--3---------|
A|------------|------------|
E|------------|------------|

Riff 2:
E|------------1------------------------------------|
B|------0-------0---------0---0---0---0---0---0----|
G|----2-----------------2---2---2---2---2---2---2--|
D|--3-------3---------3----------------------------|
A|-------------------------------------------------|
E|-------------------------------------------------|

Intro:
Riff 1 x2
Riff 2
F7M  F7 x2

  F7M                    Dm  
當玫瑰已經不再香 今年月圓也沒有去年的亮
      Bb
是誰把相思磨成沙 舖再我腳下
    C7          C
每走一步總要想起他
  F                        Dm
管季節如何多變化 換一扇窗口景色就會更美嗎
      Bb
如果青春過了年華 心還有牽掛
        C7         C
也是一種幸福啊 你說是嗎

  F             Dm
當寂寞再次漲潮 心痛無處停靠
  Bb             C
我知道我會 一定會贏過這煎熬
    F              C     Dm
每當思念又見低潮 我就會想到
  Bbm       C    Bb   C      F
曾擁有過的美好 能放的下不等於忘的了

                            Bbm     C
愛過了才知道 傷過了才明瞭 結局無可奉告
  Bbm     F             Bb       C   C7
等雲霧散了心纔會想到 怎麼逃都躲不掉

  F             Dm
當寂寞再次漲潮 心痛無處停靠
  Bb             C
我知道我會 一定會贏過這煎熬
    F              C     Dm
每當思念又見低潮 我就會想到
  Bbm       C    Bbm     C
曾擁有過的美好 世事都難預料
  Bb   C      F
能放的下不等於忘的了

添加到谱单
X

添加到谱单

《 潮 -- 周華健 》加入
◎ 选择已有谱单 创建新的

公开 (默认不公开,欢迎创建有意思的"公开谱单")

创建取消

推荐语(选填)

X

请先登录chord4


忘记密码